PrimaNota.ru - самый крупный в мире бесплатный архив песенных текстов, аккордов, табулатур и нот


Save Me Hollywood - Any Press Is Good Press - таба, видео

Регистрация Запомнить меня
Войти через:  Facebook Google Twitter Vk Yandex Mail.ru

Save Me Hollywood - Any Press Is Good Press - таба, видео

Печатать
Просмотров: 101
Song Title:   Any Press Is Good Press
Band/Artist:  Save Me Hollywood

Tabbed By:    Pauz Prima (primesenthyx@yahoo.com)

-------------------------------------------------------------------------------

INTRO:

Guitar 1:

|------------------------------------|
|------------------------------------|
|------------------------------------|
|-2-2~-2-2~~--6-6~-6-6~~--4-4~-4-4~~-|
|-2-2~-2-2~~--6-6~-6-6~~--4-4~-4-4~~-|
|-2-2~-2-2~~--6-6~-6-6~~--4-4~-4-4~~-|

|------------------------------------------------------------------------------------|
|------------------------------------------------------------------------------------|
|------------------------------------------------------------------------------------|
|-22-222-244-444-466-666-666-666-644-444-444-444-42-2~-222-222-222-1-1~-111111111111-|
|-22-222-244-444-466-666-666-666-644-444-444-444-42-2~-222-222-222-1-1~-111111111111-|
|-22-222-244-444-466-666-666-666-644-444-444-444-42-2~-222-222-222-1-1~-111111111111-|

Guitar 2:

|---------------------------------------|
|---------------------------------------|
|----------3br~~--------8~~~------------|
|-2-2~-2-2~------6-6~-6------4-4~-4-4~~-|
|-2-2~-2-2~------6-6~-6------4-4~-4-4~~-|
|-2-2~-2-2~------6-6~-6------4-4~-4-4~~-|

|-------------------------------------------------------------|
|-------------------------------------------------------------|
|-44-666-888-999-91111111111111111-99999999-88888888-66666666-|
|-------------------------------------------------------------|
|-22-444-666-777-79-9-9-9-9-9-9-9--77777777-66666666-44444444-|
|-------------------------------------------------------------|

|---------------------------------------------------------------------------------|
|----------------------------------------------------------------------5~~~-------|
|-4444444444444444-3333333333333333------4-----3-------------------4~~------4~~~~-|
|------------------------------------444---444---4-444-----2---2-1-4~~------------|
|-2222222222222222-1111111111111111--------------------444---4-----2~~------------|
|---------------------------------------------------------------------------------|


VERSE 1: E-G#m-E-F#

Guitar 1: diskartehann nyo na lang strumming pattern dito. (ang hirap kasing i-tab.) 

|-------------------------------------------------------------------------|
|-------------------------------------------------------------------------|
|-------------------------------------------------------------------------|
|-22222-222-22-2-22-66666-666-66-6-66-22222-222-22-2-22-44444-444-44-4-44-| 2x
|-22222-222-22-2-22-66666-666-66-6-66-22222-222-22-2-22-44444-444-44-4-44-|
|-22222-222-22-2-22-66666-666-66-6-66-22222-222-22-2-22-44444-444-44-4-44-|

Guitar 2:

|-------------------------------------------------------------------------|
|-------------------------------------------------------------------------|
|-44444-444-44-4-44-88888-888-88-8-88-44444-444-44-4-44-66666-666-66-6-66-|
|-22222-222-22-2-22-66666-666-66-6-66-22222-222-22-2-22-44444-444-44-4-44-|
|-22222-222-22-2-22-66666-666-66-6-66-22222-222-22-2-22-44444-444-44-4-44-|
|-22222-222-22-2-22-66666-666-66-6-66-22222-222-22-2-22-44444-444-44-4-44-|

|-----------------------------------------------------------------------------------------7~~-|
|-----------------------------------------------------------------------------5-4-----4-5-----|
|-4-44-444-4-44------8----8-8---8-8------4----4-4---4-1------6----6-6---66--4-----4-6---------|
|-2-22-222-2-22-6666---66-----6-----2222---22-----2-----4444---44-----4-----------------------|
|---------------------------------------------------------------------------------------------|
|---------------------------------------------------------------------------------------------|

CHORUS: G#m-E-B-F#

Guitar 1 & 2:

|------------------------------------------------------------------------|
|------------------------------------------------------------------------|
|------------------------------------------------------------------------|
|-6666666666666666-2222222222222222-4-4~-44444444444444-4444444444444444-| 2x
|-6666666666666666-2222222222222222-2-2~-22222222222222-4444444444444444-|
|-6666666666666666-2222222222222222---------------------4444444444444444-|


INTERLUDE:

Guitar 1:

|------------------------|
|------------------------|
|------------------------|
|-2-2~-2-2~~--6-6~-6-6~~-|
|-2-2~-2-2~~--6-6~-6-6~~-|
|-2-2~-2-2~~--6-6~-6-6~~-|

|-----------7~~-------------|
|---------------------------|
|-9~~~--8~~------6~~~--4~~~-|
|---------------------------|
|-7~~~--6~~------4~~~--2~~~-|
|---------------------------|

Guitar 2:

|----------------------------|
|----------------------------|
|----------3br~~--------8~~~-|
|-2-2~-2-2~------6-6~-6-6~~~-|
|-2-2~-2-2~------6-6~-6-6~~~-|
|-2-2~-2-2~------6-6~-6-6~~~-|

|---------------------------7~~~-|
|-5~~-5-4--------------/4-5------|
|-4~~-----4~~-4-3----------------|
|-2~~-------------4~~~-----------|
|--------------------------------|
|--------------------------------|


VERSE 2: E-G#m-E-F#

Guitar 1:

|-----------------------------------------------------------------|
|-----------------------------------------------------------------|
|-44444-4-4-44444-88888-8-8-88888-44444-4-4-44444-66666-6-6-66666-|
|-----------------------------------------------------------------| 2x
|-22222-2-2-22222-66666-6-6-66666-22222-2-2-22222-44444-4-4-44444-|
|-----------------------------------------------------------------|

Guitar 2:

|------------------7-------6---6----6-6---6---6------------------7------------------------14----|
|---7---7----7-7-----7----------------------------7---7----7-7-----7-----9---9----9--12------12-|
|-8---8---88-----8-----9-8---8---88-----8---8---8---8---88-----8-----9-9---9---99-------13------|
|-----------------------------------------------------------------------------------------------|
|-----------------------------------------------------------------------------------------------|
|-----------------------------------------------------------------------------------------------|

|------------------7-------6---6----6-6---6---6-----------------------------7------------14----|
|---7---7----7-7-----7----------------------------7---7----7-7---7-9-7---7----7--12-12------12-|
|-8---8---88-----8-----9-8---8---88-----8---8---8---8---88-----8-------9---9-----------13------|
|----------------------------------------------------------------------------------------------|
|----------------------------------------------------------------------------------------------|
|----------------------------------------------------------------------------------------------|


BRIDGE: G#m-E-F#

Guitar 1 & 2:

|---------------------------------------------------------------------|
|---------------------------------------------------------------------|
|---------------------------------------------------------------------|
|-66-222-4-4444444-66-222-4-4444444-66-222-4-4444444-66-222-4-4444444-| 2x
|-66-222-4-4444444-66-222-4-4444444-66-222-4-4444444-66-222-4-4444444-|
|-66-222-4-4444444-66-222-4-4444444-66-222-4-4444444-66-222-4-4444444-|


CHORUS: G#m-E-B-F#

Guitar 1 & 2:

|------7777-----------------------------------------------------------------|
|-----------5555-4444-------------------------------------------------------|
|---------------------------------------------------------------------------|
|-6666----------------2222222222222222-4-4~-44444444444444-4444444444444444-|
|---------------------2222222222222222-2-2~-22222222222222-4444444444444444-|
|---------------------2222222222222222---------------------4444444444444444-|

|------------------------------------------------------------------------|
|------------------------------------------------------------------------|
|------------------------------------------------------------------------|
|-6666666666666666-2222222222222222-4-4~-44444444444444-4444444444444444-|
|-6666666666666666-2222222222222222-2-2~-22222222222222-4444444444444444-|
|-6666666666666666-2222222222222222---------------------4444444444444444-|


OUTRO 1: B-E-G#m-F#

Guitar 1:

|-------------------------------------------------------------|
|-------------------------------------------------------------|
|-------------------------------------------------------------|
|-4-4444-4444444-2-2222-2222222-6-6666-6666666-4-4444-4444444-| 2x
|-2-2222-2222222-2-2222-2222222-6-6666-6666666-4-4444-4444444-|
|----------------2-2222-2222222-6-6666-6666666-4-4444-4444444-|

|--------------------------|
|--------------------------|
|--------------------------|
|-4~~~--2~~~--6~~~--4~~~~~-|
|-2~~~--2~~~--6~~~--4~~~~~-|
|-------2~~~--6~~~--4~~~~~-|

Guitar 2:

|-------------------------------------------------------------------------------|
|-------------------------------------------------------------------------------|
|-4-4444-4-44-/11-1111--8-8888-4-44-/11-1111--8-8888-4-44-/11-1111--6-6666-6666-|
|-------------------------------------------------------------------------------| 2x
|-2-2222-2-22-/9--9-9---6-6666-2-22-/9--9-9---6-6666-2-22-/9--9-9---4-4444-4444-|
|-------------------------------------------------------------------------------|

|--------------------------------|
|--------------------------------|
|-4~~-4/11-8~~-4/11-8~~-4/11-6~~-|
|--------------------------------|
|-2~~-2/9--6~~-2/9--6~~-2/9--4~~-|
|--------------------------------|

|------------------------------------|
|------------------------------------|
|-4~~-4/11-8~~-4/11-8~~~-6~~~-4~~~~~-|
|------------------------------------|
|-2~~-2/9--6~~-2/9--6~~~-4~~~-2~~~~~-|
|------------------------------------|


~ - let ring
/ - slide up
br - bend/release 

-----------------------------------------------------------------------------------

> SenthyX Zone
> Senthyx Band


https://www.facebook.com/savemehollywood?fref=ts
Добавлено: 23.08.2013
Другие материалы по этой песне:
  • Аккорды и текст

Страница создана 23.08.2013
http://primanota.ru/save-me-hollywood/any-press-is-good-press-chords.htm
Привет, Гость.
Предлагаем пройти революционный курс по гитаре.
Подарок от PrimaNota.Ru, забирай!