PrimaNota.ru - самый крупный в мире бесплатный архив песенных текстов, аккордов, табулатур и нот


Save Ferris - Goodbye - аккорды и текст, таба, бас-таба, видео

Регистрация Запомнить меня
Войти через:  Facebook Google Twitter Vk Yandex Mail.ru

Save Ferris - Goodbye - аккорды и текст, таба, бас-таба, видео

Печатать
Просмотров: 175
Goodbye
Save Ferris
 
Artist: Save Ferris
 Title: Goodbye
 Album: It Means Everything

BassTab Transcribed By Rattman.

This is my first attempt at a Tablature, and probably a real hard song
to start out with. I'm sure theres some mistakes and missing bits in it
but theres hardly any Ska on OLGA so I figure somebody's got to do it.
This is a great jazzy Ska song by Save Ferris, the bass is probably the
hardest part to play since you have to make so many changes.

This song sounds best on a muted bass so turn your tone down all the way.

Intro Riff:
G---------------
D---------------
A-6-5-3-1-0-0-
E---------------

Main Riff (slow):
G-----------
D-----------
A-5-3-1-0-0-
E-----------

Hits:
G---------
D---------
A-1-3-4-0-
E---------

Fill #1:
G--------------
D--------------
A-1-1-3-3-5-0~-
E--------------

Main Riff Fast (fast):
G------------------------------------------------------------------- 
D-0-0-3-3-5-5-3-3---------------------------------------------------
A-----------------0-0-3-3-5-5-3-3-----------------0-0-3-3-5-5-3-3--- 
E---------------------------------0-0-3-3-5-5-3-3-------------------

D Fill                  
G----------------- 
D-0-0-3-3-5-5-3-3- 
A----------------- 
E----------------- 

Hit 2:
G---------- 
D---------- 
A-0-0--0-0- 
E---------- 

A Fill (fast):
G-----------------
D-----------------
A-0-0-3-3-5-5-3-3-
E-----------------

E Fill (fast):
G-----------------
D-----------------
A-----------------
E-0-0-3-3-5-5-3-3-

End:

G-----------------
D-0-0-0-0---------
A-----------------
E----------------- 



(keyboard/drum intro)

Intro Riff (x1)
Main Slow (x7)
Hit (x1)
Fill #1 (x1)
Verse Slow (x7)
Hit (x1)
Fill #1 (x1)

[Tempo Changes: Fast]

Main Fast (x7)
Fill E (x1)
Fill A (x1)
Fill D (x1)
Fill A (x1)
Fill E (x1)
Fill A (x1)
Hit 2 (x1)
Fill E (x1)
Fill A (x1)
Fill E (x1)
Fill A (x1)
Fill E (x1)
Fill A (x1)

[Tempo Changes: Slow]

Main Slow (x3)
Hit (x1)
Fill #1 (x1)

[Tempo Changes: Fast]
Main Fast (x4)
End (x1)

Sugestions/Corrections/Requests send to jratt@tir.com - No Flames Please
I dont really care what you think.


Добавлено: 21.04.2012
Другие материалы по этой песне:
  • Аккорды и текст

Страница создана 25.02.2012
http://primanota.ru/save-ferris/goodbye-chords.htm
Привет, Гость.
Предлагаем пройти революционный курс по гитаре.
Подарок от PrimaNota.Ru, забирай!