PrimaNota.ru - самый крупный в мире бесплатный архив песенных текстов, аккордов, табулатур и нот


Savatage - When The Crowds Are Gone - текст песни, таба, видео

Регистрация Запомнить меня
Войти через:  Facebook Google Twitter Vk Yandex Mail.ru

Savatage - When The Crowds Are Gone - текст песни, таба, видео

Печатать
Просмотров: 116
WHEN THE CROWDS ARE GONE

As recorded by Savatage

(From the 1990 Album GUTER BALLET)

Words and Music by Jon Oliva, Criss Oliva, & Paul O'Neill

Transcribed by Robert Frank (megabob6666@yahoo.com)

Gtr I (E A D G B E) - 'Untitled'

Q=66

Cmadd2 Cmadd2

4/4

Gtr I

Q Q Q Q Q Q Q Q Q Q Q Q Q Q Q Q

|-3--3--3--3--|-3--3--3--3---||-3---3--3---3----|-3-3-3-3---|

|-3--3--3--3--|-3--3--3--3---||-3---3--3---3----|-3-3-3-3---|

|-8--8--8--8--|-8--8--8--8---||-8---8--8---8----|-8-8-8-8---|

|-------------|--------------||-----------------|-----------|

|-------------|--------------||-3---------(3)---|-3---------|

|-------------|------------3-||---------------3-|-----------|

H Q E E H. +E E W

 

F Fmaj7 Cmadd2

Q Q E E E E E E E E Q Q Q Q Q Q Q Q Q Q

|-5--5--5---5---|--5----5---5--5--|-3----3--3--3---|-3----3--3-3---|

|-6--6--5---5---|--4----4---4--4--|-3----3--3--3---|-3----3--3-3---|

|-5--5----5---5-|-----5---5-------|-8----8--8--8---|-8----8--8-8---|

|-3-------------|-(3)-------------|----------------|---------------|

|---------------|-----------------|-3--------------|-3-------------|

|---------------|-----------------|--------------3-|-------------3-|

W +W H.. E H.. E

 

F Fmaj7 Cmadd2

Q Q Q Q Q Q E E E E E E E E E E E E Q Q Q Q

|-3--3--3--3--|-5--5--5---5---|--5----5---5---5---|-3--3--3--3-||

|-3--3--3--3--|-6--6--5---5---|--4----4---3---3---|-3--3--3--3-||

|-8--8--8--8--|-5--5----5---5-|-----5---5---5---5-|-8--8--8--8-||

|-------------|-3-------------|-(3)---------------|------------||

|-3-----------|---------------|-------------------|-3----------||

|-------------|---------------|-------------------|------------||

W W +W W

 

Bb5 A G5 F5 Eb5

H. Q H. Q W

| | | | |

/ o / / /

|-3-|

H. Q H. Q H E S S S T T T S S

|------------|-----------------|-------------------------|

|------------|-----------------|----------6-8-6h8p6---6--|

|-3----------|-----------/10\--|-8------8-----------8----|

|-3----------|-5---------/10\--|-8--------3-5-3h5p3---3--|

|-1-------0--|-5----------/8\--|-6------6-----------6----|

|------------|-3---------------|-------------------------|

E S S S T T T S S

|-3-|

 

D5 D5 D5 C5

E E E S S E E E S S E E E E +H

| | | | | | | | | | | | |

/ / o o / / o o / / / / /

E E +E S S E E E S S E E E E +Q Q

|----------------------------------|-----------------------||

|----------------------------------|-----------------------||

|-7--7--(7)\---------7--7----------|-7--7--7--7--(7)-------||

|-7--7--(7)\---------7--7----------|-7--7--7--7--(7)--x\---||

|-5--5--(5)\---------5--5----------|-5--5--5--5--(5)--x\---||

|--------------5--8-----------5--8-|-----------------------||

 

G5 F5 G5 Eb5

2/4

W H. +S S E W H

| | | | | | |

/ / / / / / /

~

|-3-|

Q S S S S E E S S E H +E +E Q Q E E S S E E S S S H

|----------------------|----------------------|----------------------|---|

|----------------------|----------------------|----------------------|---|

|----------5-8-7-5-----|----------------------|----------------------|---|

|----5-7-8---------8-7-|-7b9--(7)-(7)\--------|------8-8-7-5-5-5-7-5-|---|

|----------------------|----------------------|----------------------|-6-|

|----------------------|----------------------|----------------------|---|

 

D5 C5D5 C5 N.C

4/4

E E E E +H

| | | | |

/ / / / /

E E E S S E E E S S E E E S S E E E E H H

|-------------||---------------------|-------------------|--------|

|-------------||---------------------|-------------------|--------|

|-------------||-5-5-------5-5-------|-5-5-------5-5-----|-10---9-|

|-------------||-5-5-------5-5-------|-5-5-------5-5-----|--------|

|-------------||-3-3-------3-3-------|-3-3-------3-3---3S|==8---7-|

|-------------||-------3-6-------3-6-|-------3-6---------|--------|

 

C5

H H E E E S S E E E S S E E E S S E E S S E

|-----------|-------------------------|-------------------------|

|-----------|-------------------------|-------------------------|

|-8----7----|-5--5--------5--5--------|-5--5--------5--5------5-|

|-----------|-5--5--------5--5--------|-5--5--------5--5------5-|

|-6----5----|-3--3--------3--3--------|-3--3--------3--3------3-|

|-----------|---------3-6---------3-6-|---------3-6------3-6----|

 

N.C C5

E E E S S E E E S S H H H H E E E S S E E Q

|------------------------|--------|-------|----------------------||

|------------------------|--------|-------|----------------------||

|-5--5--------5--5-------|-10--9--|-8--7--|-5-5-------5-5--------||

|-5--5--------5--5-------|--------|-------|-5-5-------5-5--------||

|-3--3--------3--3-------|--8--7--|-6--5--|-3-3-------3-3--/15\--||

|--------3-6---------3-6-|--------|-------|-------3-6------------||

 

Bb5 A G5 F5 Eb5 D5ACD5AC D5 C5D5

E E E E +H

| | | | |

/ / / / /

|------|-------|-------|---------|------------||

|------|-------|-------|---------|------------||

|------|-------|-------|---------|------------||

|------|-------|-------|---------|------------||

|------|-------|-------|---------|------------||

|------|-------|-------|---------|------------||

 

G5 Eb5 F5 G5 Eb5

2/4

|---------|----------|---------|-----|

|---------|----------|---------|-----|

|---------|----------|---------|-----|

|---------|----------|---------|-----|

|---------|----------|---------|-----|

|---------|----------|---------|-----|

 

D5 A5 D5

4/4

W W H. +S S E

| | | | | |

/ / / / / /

~~~~~~

|---3----|

W Q +Q +S E S E E S S H. E S

|----------||-17---(17)---(17)------17--19-20-19-20-|-20b22========20r20-|

|----------||------------------20b22----------------|--------------------|

|-7--------||---------------------------------------|--------------------|

|-7--------||---------------------------------------|--------------------|

|-5--------||---------------------------------------|--------------------|

|----------||---------------------------------------|--------------------|

 

A5

W

|

/

~~ ~~ PM---|

|3-| |--3--| |--3--|

S S E E S E E S S S S E T T T

|-20-19-17--20-17------------------------12-13-12-|

|-----------------17--17-----------12-13----------|

|-------------------------------------------------|

|------------------------------14-----------------|

|------------------------12-15--------------------|

|-------------------------------------------------|

 

D5

H. +S S E

| | | |

/ / / /

Q. +S S +E S S +S S +S +S

|----------------------------------------------|

|-15-----(15)----------8-----------------------|

|-------------7b9--(7)---7b9--(7)-7b9r(7)-(7)--|

|----------------------------------------------|

|----------------------------------------------|

|----------------------------------------------|

 

D5

W

|

/

~~ ~~

|-3--| |----3----|

S S E S S E +E S S S S S S S S S

|----------------------------------------------|

|-13-12-10--13-12-10--(10)-8-10-8--7-8-7---7---|

|----------------------------------------9---9-|

|----------------------------------------------|

|----------------------------------------------|

|----------------------------------------------|

 

D5

H. +S S E

| | | |

/ / / /

Q E S S +S +S S S S S E

|---------------------------------------------|

|---------15b17===(15)-(15)-15rp13--13p12-12--|

|-7---7---------------------------------------|

|---------------------------------------------|

|---------------------------------------------|

|-------0-------------------------------------|

 

A5

W

|

/

|-----------1:1-----------| |-----------1:1------------|

T T T T T T T T T T T T T T T T T T T T T T T T T T T

|-----------------------------------------------------------------:

|-----------------------------------------------------------------:

|----------------------------------------------------------7-9----:

|--------------------------------------------7-9-10-7-9-10--------:

|-----------5-7-8-7-5-----------5-7-8-7-8-10----------------------:

|-----5-7-8-----------8-7-5-7-8-----------------------------------:

 

|------------1:1------------| |----------------1:1----------------|

T T T T T T T T T T T T T T T T T T T T T T T T T T

|------------------------------------------------10-12-13-12-10-13-10----|

|---------------------------------10-13-10-12-13-------------------------|

|-10-9-7--------7-9-10-7-9-10--12----------------------------------------|

|--------10-7-9-10-------------------------------------------------------|

|------------------------------------------------------------------------|

|------------------------------------------------------------------------|

 

D5 Bb5 A G5 F5 Eb5 F5

H. Q H. Q H. Q W H. +S S E

| | | | | | | | | | |

/ / / o / / / / / / /

H. Q H. Q H. Q W H. +S S E

|------------||----------|-------------|------|---------------------|

|-13---------||----------|-------------|------|---------------------|

|------------||-3--------|-------/11\--|-7----|-10------(10)-10-10\-|

|--------x\--||-3--------|-5-----/11\--|-7----|-10------(10)-10-10\-|

|--------x\--||-1-----0--|-5------/8\--|-6----|--8-------(8)--8--8\-|

|------------||----------|-3-----------|------|---------------------|

 

Bb5 A G5 F5 Eb5 F5

|-------|----------|---------|-----|

|-------|----------|---------|-----|

|-------|----------|---------|-----|

|-------|----------|---------|-----|

|-------|----------|---------|-----|

|-------|----------|---------|-----|

 

Bb5 A

PM----------------------------------------------

S S S S S S S S S S S S S S S S

|-------------------------------------------------|

|-------------------------------------------------|

|-------------------------------------------------|

|-15-12-------15-12-------15-12-------15-12-------|

|-------15-13-------15-13-------15-13-------15-13-|

|-------------------------------------------------|

 

G5 F5

----------------------------------------------|

S S S S S S S S S S S S S S S S

|--------------------------------------------------|

|--------------------------------------------------|

|--------------------------------------------------|

|-15-12-------15-12-------15-12-------15-12--------|

|-------15-13-------15-13-------15-13-------15-13--|

|--------------------------------------------------|

 

Eb5

PM----------------------------------------------

S S S S S S S S S S S S S S S S

|-------------------------------------------------|

|-------------------------------------------------|

|-------------------------------------------------|

|-15-12-------15-12-------15-12-------15-12-------|

|-------15-13-------15-13-------15-13-------15-13-|

|-------------------------------------------------|

 

F5

----------------------------------------------|

S S S S S S S S S S S S S S S S

|--------------------------------------------------|

|--------------------------------------------------|

|--------------------------------------------------|

|-15-12-------15-12-------15-12-------15-12--------|

|-------15-13-------15-13-------15-13-------15-13--|

|--------------------------------------------------|

 

Bb5 A

PM----------------------------------------------

S S S S S S S S S S S S S S S S

|-------------------------------------------------|

|-------------------------------------------------|

|-------------------------------------------------|

|-15-12-------15-12-------15-12-------15-12-------|

|-------15-13-------15-13-------15-13-------15-13-|

|-------------------------------------------------|

 

G5 F5

----------------------------------------------|

S S S S S S S S S S S S S S S S

|--------------------------------------------------|

|--------------------------------------------------|

|--------------------------------------------------|

|-15-12-------15-12-------15-12-------15-12--------|

|-------15-13-------15-13-------15-13-------15-13--|

|--------------------------------------------------|

 

Eb5

PM----------------------------------------------

S S S S S S S S S S S S S S S S

|-------------------------------------------------|

|-------------------------------------------------|

|-------------------------------------------------|

|-15-12-------15-12-------15-12-------15-12-------|

|-------15-13-------15-13-------15-13-------15-13-|

|-------------------------------------------------|

 

F5

----------------------------------------------|

S S S S S S S S S S S S S S S S

|--------------------------------------------------|

|--------------------------------------------------|

|--------------------------------------------------|

|-15-12-------15-12-------15-12-------15-12--------|

|-------15-13-------15-13-------15-13-------15-13--|

|--------------------------------------------------|

 

Bb5 A

PM----------------------------------------------

S S S S S S S S S S S S S S S S

|-------------------------------------------------|

|-------------------------------------------------|

|-------------------------------------------------|

|-15-12-------15-12-------15-12-------15-12-------|

|-------15-13-------15-13-------15-13-------15-13-|

|-------------------------------------------------|

 

G5 F5

----------------------------------------------|

S S S S S S S S S S S S S S S S

|--------------------------------------------------|

|--------------------------------------------------|

|--------------------------------------------------|

|-15-12-------15-12-------15-12-------15-12--------|

|-------15-13-------15-13-------15-13-------15-13--|

|--------------------------------------------------|

 

Eb5

PM----------------------------------------------

S S S S S S S S S S S S S S S S

|-------------------------------------------------|

|-------------------------------------------------|

|-------------------------------------------------|

|-15-12-------15-12-------15-12-------15-12-------|

|-------15-13-------15-13-------15-13-------15-13-|

|-------------------------------------------------|

 

F5

----------------------------------------------|

S S S S S S S S S S S S S S S S

|--------------------------------------------------|

|--------------------------------------------------|

|--------------------------------------------------|

|-15-12-------15-12-------15-12-------15-12--------|

|-------15-13-------15-13-------15-13-------15-13--|

|--------------------------------------------------|

 

Bb5 A

PM----------------------------------------------

S S S S S S S S S S S S S S S S

|-------------------------------------------------|

|-------------------------------------------------|

|-------------------------------------------------|

|-15-12-------15-12-------15-12-------15-12-------|

|-------15-13-------15-13-------15-13-------15-13-|

|-------------------------------------------------|

 

G5

----------------------------------------------|

S S S S S S S S S S S S S S S S

|--------------------------------------------------|

|--------------------------------------------------|

|--------------------------------------------------|

|-15-12-------15-12-------15-12-------15-12--------|

|-------15-13-------15-13-------15-13-------15-13--|

|--------------------------------------------------|

 

Eb5

PM----------------------------------------------

S S S S S S S S S S S S S S S S

|-------------------------------------------------|

|-------------------------------------------------|

|-------------------------------------------------|

|-15-12-------15-12-------15-12-------15-12-------|

|-------15-13-------15-13-------15-13-------15-13-|

|-------------------------------------------------|

 

F5

----------------------------------------------|

S S S S S S S S S S S S S S S S

|--------------------------------------------------|

|--------------------------------------------------|

|--------------------------------------------------|

|-15-12-------15-12-------15-12-------15-12--------|

|-------15-13-------15-13-------15-13-------15-13--|

|--------------------------------------------------|

 

Bb5 A

PM----------------------------------------------

S S S S S S S S S S S S S S S S

|-------------------------------------------------|

|-------------------------------------------------|

|-------------------------------------------------|

|-15-12-------15-12-------15-12-------15-12-------|

|-------15-13-------15-13-------15-13-------15-13-|

|-------------------------------------------------|

 

G5

----------------------------------------------|

S S S S S S S S S S S S S S S S

|--------------------------------------------------|

|--------------------------------------------------|

|--------------------------------------------------|

|-15-12-------15-12-------15-12-------15-12--------|

|-------15-13-------15-13-------15-13-------15-13--|

|--------------------------------------------------|

 

Eb5

PM----------------------------------------------

S S S S S S S S S S S S S S S S

|-------------------------------------------------|

|-------------------------------------------------|

|-------------------------------------------------|

|-15-12-------15-12-------15-12-------15-12-------|

|-------15-13-------15-13-------15-13-------15-13-|

|-------------------------------------------------|

 

F5

----------------------------------------------|

S S S S S S S S S S S S S S S S

|--------------------------------------------------|

|--------------------------------------------------|

|--------------------------------------------------|

|-15-12-------15-12-------15-12-------15-12--------|

|-------15-13-------15-13-------15-13-------15-13--|

|--------------------------------------------------|

 

Bb5 A

PM----------------------------------------------

S S S S S S S S S S S S S S S S

|-------------------------------------------------|

|-------------------------------------------------|

|-------------------------------------------------|

|-15-12-------15-12-------15-12-------15-12-------|

|-------15-13-------15-13-------15-13-------15-13-|

|-------------------------------------------------|

 

G5 F5

----------------------------------------------|

S S S S S S S S S S S S S S S S

|--------------------------------------------------|

|--------------------------------------------------|

|--------------------------------------------------|

|-15-12-------15-12-------15-12-------15-12--------|

|-------15-13-------15-13-------15-13-------15-13--|

|--------------------------------------------------|

 

Eb5 F5

PM------------------------------------------|

S S S S S S S S S S S S S S S S W

|-------------------------------------------------|-------||

|-------------------------------------------------|-------||

|-------------------------------------------------|-10----||

|-15-12-------15-12-------15-12-------15-12-------|-10----||

|-------15-13-------15-13-------15-13-------15-13-|--8----||

|-------------------------------------------------|-------||

 

Q=56

Q Q Q Q Q Q Q Q Q Q Q Q

|-10---10---10---10--|-10---10---10----8--|-6---6----8----8-|

|-11---11---11---11--|-11---11---11---10--|-8---8---10---10-|

|-10---10---10---10--|-10---10---10---10--|-8---8----8----8-|

|--------------------|--------------------|-----------------|

|--------------------|--------------------|-----------------|

|--------------------|--------------------|-----------------|

 

N.C

S S S S S S S S S S S S S S S S

|-------10----11-10-------13-11-10----------------|

|-11-13----13-------13-11----------13-11-13-11-10-|

|-------------------------------------------------|

|-------------------------------------------------|

|-------------------------------------------------|

|--6----------------------------------------------|

W

 

S S S S S S S S S S S S S S S S

|-------------------------11-10-------------------|

|----10-11-10-13-11-10----------13-11-10-11-------|

|-12-------------------12-------------------12-11-|

|-------------------------------------------------|

|-------------------------------------------------|

|--3----------------------------------------------|

W

 

S S S S S S S S S S S S S S S S W

|-11-10-------11-10-------13-11-10----------------|-------*|

|-------13-11-------13-11----------13-11-13-11-10-|-11----*|

|-------------------------------------------------|-10----*|

|-------------------------------------------------|-12----*|

|--6-----------------------8----------------------|--6----*|

|-------------------------------------------------|-------*|

H H W

 

~~~ ~~~ ~~~ ~~

|--3--| |-3--| |-3--|

Q. +S T T T Q. +S T T T Q. +S T T T H

|-----------------------------------------|------------------------|

|-----------------------------------------|------------------------|

|-10-----(10)-10-12-10S==9-----(9)-9-10-9S|=8-----(8)-8-10-8S=7----|

|-----------------------------------------|------------------------|

|--8------(8)--8-10--8S==7-----(7)-7--8-7S|=6-----(6)-6--8-6S=5----|

|-----------------------------------------|------------------------|

Q. +S T T T Q. +S T T T Q. +S T T T H

|--3--| | |-3--|

 

1.,2.,3. 4.

~~

Q. E Q Q Q. +S S S S S S S S E W

||-----------------|------------------------------------||-------||

||o----------------|-----------------------------------o||-------||

||-------------12--|-11----(11)-12-12\-11-11\-9-9\-7-7--||-11----||

||--7----9-10------|------------------------------------||-------||

||o----------------|-----------------------------------o||-------||

||-----------------|------------------------------------||-------||

 

Duration Legend

---------------

W - whole; H - half; Q - quarter; E - 8th; S - 16th; T - 32nd; X - 64th;

a - acciaccatura

+ - note tied to previous; . - note dotted; .. - note double dotted

Uncapitalized letters represent notes that are staccato (1/2 duration)

Irregular groupings are notated above the duration line

Duration letters will always appear directly above the note/fret number
it represents the

duration for. Duration letters with no fret number below them represent

rests. Multi-bar rests are notated in the form Wxn, where n is the number

of bars to rest for. Low melody durations appear below the staff

Tablature Legend

----------------

h - hammer-on

p - pull-off

b - bend

pb - pre-bend

r - bend release (if no number after the r, then release immediately)

/\ - slide into or out of (from/to "nowhere")

s - legato slide

S - shift slide

 n> - natural harmonic

[n] - artificial harmonic

n(n) - tapped harmonic

~ - vibrato

tr - trill

T - tap

TP - trem. picking

PM - palm muting

\n/ - tremolo bar dip; n = amount to dip

\n - tremolo bar down

n/ - tremolo bar up

/n\ - tremolo bar inverted dip

= - hold bend; also acts as connecting device for hammers/pulls

 > - volume swell (louder/softer)

x - on rhythm slash represents muted slash

o - on rhythm slash represents single note slash

Misc Legend

-----------

| - bar

|| - double bar

||o - repeat start

o|| - repeat end

*| - double bar (ending)

: - bar (freetime)

$ - Segno

& - Coda

Tempo markers -  E/E./Q/Q./H/H.> = BPM(8/16=s8/s16), where s8 = swing
8ths, s16 = swing 16ths



Bob Frank
     
Добавлено: 12.07.2013
Другие материалы по этой песне:

Страница создана 09.03.2012
http://primanota.ru/savatage/when-the-crowds-are-gone-chords.htm
Привет, Гость.
Предлагаем пройти революционный курс по гитаре.
Подарок от PrimaNota.Ru, забирай!