PrimaNota.ru - самый крупный в мире бесплатный архив песенных текстов, аккордов, табулатур и нот


Savatage - Prelude To Madness Hall Of The Mountain King - таба, видео

Регистрация Запомнить меня
Войти через:  Facebook Google Twitter Vk Yandex Mail.ru

Savatage - Prelude To Madness Hall Of The Mountain King - таба, видео

Печатать
Просмотров: 112
Уроки эстрадного вокала в Санкт-Петербурге
-------------------------------------------------------------------------------
              Prelude to Madness (Hall of The Mountain King) - Savatage
-------------------------------------------------------------------------------

Tuning:Standard

e|---------------------------------------------------------------------------|
B|---------------------------------------------------------------------------|
G|---------------------------------------------------------------------------|
D|------------------------------------------2-0-------0----------------------|
A|-------0-2---2-1---1-0---0--------0-2---2-----2---2------------------------|
E|-0-2-3-----3-----2-----1----0-2-3-----3---------3--------------------------|

e|---------------------------------------------------------------------------|
B|---------------------------------------------------------------------------|
G|------------------------------------------2-0------------------------------|
D|-------0-2---2-1---1-0---0--------0-2---2-----2-0--------------------------|
A|-0-2-3-----3-----2-----1----0-2-3-----3-----------2------------------------|
E|----------------------------------------------------3-2-0------------------|

e|---------------------------------------------------------------------------|
B|---------------------------------------------------------------------------|
G|---------------------------------------------------------------------------|
D|------------------------------------------0-2-------0----------------------|
A|-------0-2---2-1---1-0---0--------0-2---2-----2---2------------------------|
E|-0-2-3-----3-----2-----1----0-2-3-----3---------3--------------------------|

Добавлено: 30.07.2015
Вам также может быть интересно:
Другие материалы по этой песне:
  • Аккорды и текст

Страница создана 30.07.2015
http://primanota.ru/savatage/prelude-to-madness-hall-of-mountain-king-chords.htm
Привет, Гость.
Предлагаем пройти революционный курс по гитаре.
Подарок от PrimaNota.Ru, забирай!