PrimaNota.ru - самый крупный в мире бесплатный архив песенных текстов, аккордов, табулатур и нот


Savatage - Memory - таба, видео

Регистрация Запомнить меня
Войти через:  Facebook Google Twitter Vk Yandex Mail.ru

Savatage - Memory - таба, видео

Печатать
Просмотров: 86
Song: Memory (Dead Winter Dead Intro)
Artist: Savatage
Album: Dead Winter Dead
Released: 1995
Tuning: Standard

*I do not claim to own this work or music. All music credit goes to Savatage.
This tab is for educational purposes only.*


Acoustic/Clean:

(0:00)
e|-----0---------------0~--------0---------------2--0~---|
B|---------3---0---2-----------------3---0---2-----------|
G|---2---2---2---2---2---------2---2---2---2---2---------|
D|-------------------------------------------------------|
A|-0------------------------0----------------------------|
E|-------------------------------------------------------|

(0:13)
e|-------------------------------------------------------|
B|-----2---3---5---5---3---2--------------------2----2---|
G|---2---2---2-------2---2---4~-----2---2---4----------4-|
D|------------------------------------2---2---2----------|
A|-0-------------0----------------0----------------0-----|
E|-------------------------------------------------------|

(0:25)
e|-------------------------------------------------------|
B|-----2---3---5---5---3---2--------------------2~-------|
G|---2---2---2-------2---2---4~-----2---2---4-------4~---|
D|------------------------------------2---2---2----------|
A|-0-------------0----------------0----------------------|
E|-------------------------------------------------------|


Distorted:

(0:35)
e|------------------------------------------------------------------------------------------------------|
B|------------------------------------------------------------------------------------------------------|
G|----6----6----6----6----6----6----7----7----7----7----9----9----7----6-------------------------6------|
D|-77---77---77---77---77---77---77---77---77---77---77---77---77---77---77-9-----7----7----9---------9-|
A|-----------------------------------------------------------------------------77---77---77---77---77---|
E|------------------------------------------------------------------------------------------------------|
   ** * ** * ** * ** * ** * ** * ** * ** * ** * **   **   **   **   **   **    **   **   **   **   **

(0:47)
e|------------------------------------------------------------------|
B|------------------------------------------------------------------|
G|----6----6----7----9----9----7----6------------------------6------|
D|-77---77---77---77---77---77---77---77-9----7----7----9---------9-|
A|-----------------------------------------77---77---77---77---77---|
E|------------------------------------------------------------------|
   **   **   **   **   **   **   **   **   **   **   **   **   **

(0:53)
e|------------------------------------------------|
B|------------------------------------------------|
G|--------------6-------6h7p6------6h7p6----------|
D|-------7h8p9----7*--9-------7--9-------7--7-9---|
A|-7h8p9----------------------------------------7-|
E|------------------------------------------------|

(1:01)
e|----------------------------------------------------------|
B|-14--14-15-15b17r15-14-------------14-12~---12h14p--------|
G|-----------------------16-14-14-16-----------------h14~---|
D|----------------------------------------------------------|
A|----------------------------------------------------------|
E|----------------------------------------------------------|


-END-

I tabbed this out by ear so there may be a few mistakes here or there. Any questions, comments,
tips, corrections, or constructive criticism, leave them in the comments section. I'd like to
make the most accurate tab possible. This is a really cool song and sort of symbolizes the berth
of Trans-Siberian Orchestra. Hope this helps those interested in jamming this awesome little tune.
Enjoy!

Legend:
* - Palm Mute (Underneath tab)
* - Pinch Harmonic (Inside tab)
b - bend
r - release
h - hammer on
p - pull off
~ - let note ring out
Добавлено: 30.07.2015
Другие материалы по этой песне:
  • Аккорды и текст

Страница создана 30.07.2015
http://primanota.ru/savatage/memory-chords.htm
Привет, Гость.
Предлагаем пройти революционный курс по гитаре.
Подарок от PrimaNota.Ru, забирай!