PrimaNota.ru - самый крупный в мире бесплатный архив песенных текстов, аккордов, табулатур и нот


Savage Messiah - The Accuser - таба, видео

Регистрация Запомнить меня
Войти через:  Facebook Google Twitter Vk Yandex Mail.ru

Savage Messiah - The Accuser - таба, видео

Печатать
Просмотров: 140
Уроки эстрадного вокала в Санкт-Петербурге
From the album Plague of Conscience (c) Earache records 2012
 
www.earacherecords.com
www.savagemessiah.net
www.facebook.com/savagemessiahmetal
www.twitter.com/savagemessiah 
www.youtube.com/savagemessiahmetal



Notation Legend.-                       
       % = repeat last bar
       / = slide up
       \ = slide down
       . = palm mute 
       p = pull off
       h = hammer on
       /\/\/\ = vibrato (it's up to you if you want to use the bar or not)
       b«   = bend half step or equivalent
       pb«  = pre-bend 
       br«  = bend and release
       pbr« = pre-bend and release

Tuning: C#, G#, c#, F#, A#, D#  


   Fast Rock = 220bpm


   Solo 1 (Dave):

 |-------------14---------------------------------/22~-|
 |-----------13---15br(17)-(15)-15~--/22~-20-18--------|
 |-/7~----/12----------------------------------19------|
 |-----------------------------------------------------|
 |-----------------------------------------------------|
 |-----------------------------------------------------|


 |-------------------------------------------------------|
 |-22-20-18-17-20-18-17-15-18-17-15-13-------------------|
 |-------------------------------------14br(15)-(14)-14~-|
 |-------------------------------------------------------|
 |-------------------------------------------------------|
 |-------------------------------------------------------|

 |-------------------------------------|
 |-------------------------------------|
 |-11-12-14-12-14-15-14-15-17-15-17-19-|
 |-------------------------------------|
 |-------------------------------------|
 |-------------------------------------|

 |-20-17--17--------------------------------------------------|
 |------19--19--19--------------------------------------------|
 |------------20--20-17-20-17--17-----------------------------|
 |---------------------------19--19-16-19-16--16--------------| 
 |------------------------------------------18--18-15-18-15---|
 |---------------------------------------------------------19-|

 |-19-16--16--------------------------------------------------|
 |------18--18--18--------------------------------------------|
 |------------19--19-16-19-16--16-----------------------------|
 |---------------------------18--18-15-18-15--15--------------|
 |------------------------------------------17--17-14-17-14---|
 |---------------------------------------------------------18-|

 |-----------------------------------------|
 |-----------------------------15----------|
 |--------------13--13-16-13-16----//19~~~-|
 |---12-15-12-15--15-----------------------|
 |-14--------------------------------------|
 |-----------------------------------------|


 Solo 2 (Joff):

 |-----------------------------------------|
 |-----------------------------------------|
 |-----------10----10--14----14--13~~~~~~--|
 |-/12----12----12--------12---------------|
 |-----12----------------------------------|
 |-----------------------------------------|

 |----------------------------------------------|
 |---------------------------------13b15~~~~~~--|
 |-12--12-13-12-10---10-------------------------|
 |-----------------12---12--10--12--------------|
 |----------------------------------------------|
 |----------------------------------------------|

 |-------17--17-16~~~--16-16-17-16-13--13---------|
 |-15--15--15------------------------15--15-13-15-|
 |---14-------------------------------------------|
 |------------------------------------------------|
 |------------------------------------------------|
 |------------------------------------------------|

 |---------------------------------------------------|
 |-15b18brb15~~-15-13-10-13-10--10---------10--------|
 |----------------------------12--12--10-12--10/13~~-|
 |---------------------------------------------------|
 |---------------------------------------------------|
 |---------------------------------------------------|
                                           
 |---------------------------------------|
 |---------------------------13b15~~~~---|
 |-12-12-13-12-10--10--------------------|
 |---------------12--12-10---------------|
 |------------------------12-------------|
 |---------------------------------------|

 |-10-------------10-----------------------|
 |---13-10-13-10----13-10--10--------------|
 |--------------12-------12--12------------|
 |-----------------------------12~~~~~~----|
 |-----------------------------------------|
 |-----------------------------------------|

 |--------------------------------------------131517-|
 |-------------------------------131517131517--------|
 |-------121415------141517141517--------------------|
 |-121415------141517--------------------------------|
 |---------------------------------------------------|
 |---------------------------------------------------|

 |-/202020202020202020202020-20b22~~~~~~-------------|
 |---------------------------------------------------|
 |---------------------------------------------------|
 |---------------------------------------------------|
 |---------------------------------------------------|
 |---------------------------------------------------|
Добавлено: 13.06.2013
Другие материалы по этой песне:
  • Аккорды и текст

Страница создана 11.06.2013
http://primanota.ru/savage-messiah/the-accuser-chords.htm
Привет, Гость.
Предлагаем пройти революционный курс по гитаре.
Подарок от PrimaNota.Ru, забирай!