PrimaNota.ru - самый крупный в мире бесплатный архив песенных текстов, аккордов, табулатур и нот


Savage Messiah - Plague Of Conscience - таба, видео

Регистрация Запомнить меня
Войти через:  Facebook Google Twitter Vk Yandex Mail.ru

Savage Messiah - Plague Of Conscience - таба, видео

Печатать
Просмотров: 114
From the album Plague of Conscience (c) Earache records 2012
 
www.earacherecords.com
www.savagemessiah.net
www.facebook.com/savagemessiahmetal
www.twitter.com/savagemessiah 
www.youtube.com/savagemessiahmetal



Notation Legend.-                       
       % = repeat last bar
       / = slide up
       \ = slide down
       . = palm mute 
       p = pull off
       h = hammer on
       /\/\/\ = vibrato (it's up to you if you want to use the bar or not)
       b«   = bend half step or equivalent
       pb«  = pre-bend 
       br«  = bend and release
       pbr« = pre-bend and release

Tuning: C#, G#, c#, F#, A#, D#  

     Fast Rock = 195

  Intro Solo (Joff):

 |---------------------------/22-22-22-22-22-22-22-22-22-22-22-22-22-22-22-22|
 |-21b22~~~~~--21b22-21~~~~~-------------------------------------------------|
 |---------------------------------------------------------------------------|
 |---------------------------------------------------------------------------|
 |---------------------------------------------------------------------------|
 |---------------------------------------------------------------------------|

 |-22-20-18----------20-18-17----------18-17-15----------17-15-13------------|
 |----------22-20-18----------20-18-17----------18-17-15----------17-15-13---|
 |---------------------------------------------------------------------------|
 |---------------------------------------------------------------------------|
 |---------------------------------------------------------------------------|
 |---------------------------------------------------------------------------|

 |----------------------------18-17-15---------------------------------------|
 |-17-15-13----------------------------18-17-15-14-15-17-15-14---------------|
 |----------17-15-14-17-15-14----------------------------------15-14-12------|
 |---------------------------------------------------------------------------|
 |---------------------------------------------------------------------------|
 |---------------------------------------------------------------------------|

 |---------------------------------------------------------------------------|
 |---------------------------------------------------------------------------|
 |---------------------------------------------------------------------------|
 |-15-14-12-11-12-14-12-11-----11--------------------------------------------|
 |-------------------------13------13--12~~~~~-------------------------------|
 |---------------------------------------------------------------------------|




   
   Solo 1 (Dave)
              p                                                 p
 |--------5-11-5-11-/-17-13--------------------------|-------1-6-1-6-/-21-17---------------|
 |-------6-----------------15------------------------|------3---------------17---------17~-|
 |------7--------------------14----------------------|-----3------------------18-----18----| x2
 |--h--7-----------------------15-----h----t--p------|--h-3---------------------19-19------|
 |-5-8---------------------------17-12-17-(20)-17-12-|-1-5---------------------------------|
 |---------------------------------------------------|-------------------------------------|


 |------------17-18-17br(18)-----|
 |-20b(22)-20----------------21~-|
 |-------------------------------|
 |-------------------------------|
 |-------------------------------|
 |-------------------------------|

 |-2118171817-------------------------------------------------------|
 |-----------2018172018171817---------------------------------------|
 |---------------------------1917151917151715-----------------------|
 |-------------------------------------------1917151917151715-------|
 |-----------------------------------------------------------201917-|
 |------------------------------------------------------------------|

 |--------------------------------------------------------|
 |-2322202220---------------------------------------------|
 |-----------2221192221192119-----------------------------|
 |----------------------------2019172019171917------------|
 |--------------------------------------------201917-16~~-|
 |--------------------------------------------------------|
                   p                           p 
 |------------12-17-12--------------------12-17-12-17-/-24~-|
 |----------13--------13----------------13------------------|
 |--------14------------14------------14--------------------|
 |---h--14----------------14-----h--14----------------------|
 |-12-15--------------------15-12-15------------------------|
 |----------------------------------------------------------|
     p  p  h  p 
 |-19-16-13-16-13--13--------------------------------------|
 |---------------------------------h--p-------h------------|
 |---------------19--19-16-19-16-13-16-13---13-16-/-19-19~-|
 |---------------------------------------15----------------|
 |---------------------------------------------------------|
 |---------------------------------------------------------|

 |-------------------------------h--h---10-13-15-13-10-13-10--10
 |-pb13(15)-(15)(15)(15)(15)~~-10-13-15---------------------15--
 |--------------------------------------------------------------
 |--------------------------------------------------------------
 |--------------------------------------------------------------
 |--------------------------------------------------------------

 |------------------------------------------------------------------|
 |-15-10-13-15-13-10-13-10--10------------------------------/2b(22)-|
 |------------------------13--13-12-10-12-13-12-10-12-10--10--------|
 |------------------------------------------------------12----------|
 |------------------------------------------------------------------|
 |------------------------------------------------------------------|



 Outro Solo (Joff):

 
Tapping position 1
 |---------------------------------------------------|
 |---------------------------------------------------|
 |--t---p-h----t-----t---p-h---t-----t---p---t-------|
 |-(7)-3-0-3--(7)-3-(7)-3-0-3-(7)-3-(7)-3-0-(7)------|
 |---------------------------------------------------|
 |---------------------------------------------------|

Tapping position 2
 |---------------------------------------------------|
 |---------------------------------------------------|
 |--t----p-h---t------t----p-h---t------t----p-h-----|
 |-(12)-7-0-7-(12)-7-(12)-7-0-7-(12)-7-(12)-7-0-7----|
 |---------------------------------------------------|
 |---------------------------------------------------|

Tapping position 3
 |-------------------------------------------------------------|
 |-------------------------------------------------------------|
 |--t-----p-h----t-------t-----p-h----t-------t-----p-h--------|
 |-(15)-12-7-12-(15)-12-(15)-12-7-12-(15)-12-(15)-12-7-12------|
 |-------------------------------------------------------------|
 |-------------------------------------------------------------|

Tapping position 4
 |-------------------------------------------------------------|
 |-------------------------------------------------------------|
 |--t-----p-h----t-------t-----p-h----t-------t-----p-h--------|
 |-(14)-11-7-11-(14)-11-(14)-11-7-11-(14)-11-(14)-11-7-11------|
 |-------------------------------------------------------------|
 |-------------------------------------------------------------|

 |-----------------10--13--12-13-12-10-12-10------10-------------------------|
 |-------------11-----------------------------13------13--11--13--11--10--11-|
 |---------10----------------------------------------------------------------|
 |-----12--------------------------------------------------------------------|
 |-13------------------------------------------------------------------------|
 |---------------------------------------------------------------------------|

 |---------------------18-17-15----------------------------------------------|
 |-10------10-------------------18-17-15-14-15-17-15-14----------------------|
 |-----12------12--10-----------------------------------15-14-12-------------|
 |---------------------------------------------------------------------------|
 |---------------------------------------------------------------------------|
 |---------------------------------------------------------------------------|

 |---------------------------------------------------------------------------|
 |---------------------------------------------------------------------------|
 |---------------------------------------------------------------------------|
 |-15-14-12-11-12-14-12-11-----11--------------------------------------------|
 |-------------------------13------13--12~~~~~-------------------------------|
 |---------------------------------------------------------------------------|

 |---------------------------------------------------12b13~~~~~-12--10-------|
 |---------------------------------------15--14--15---------------------14~~~|
 |-------------10--9--10-9--/14--13--14--------------------------------------|
 |/12--11--12----------------------------------------------------------------|
 |---------------------------------------------------------------------------|
 |---------------------------------------------------------------------------|

 |---------------------------------------------------------------------------|
 |-15--14--15----------------------------------------------------------------|
 |-------------14--/10--9--10--9--------------9~~~~~-------------------------|
 |--------------------------------12------12---------------------------------|
 |------------------------------------12-------------------------------------|
 |---------------------------------------------------------------------------|

 |------------15-8-10-13-15-13-10-8-------------17-10-13-15-17-15-13-10------|
 |-15-8-10-13-----------------------17-10-13-15------------------------------|
 |---------------------------------------------------------------------------|
 |---------------------------------------------------------------------------|
 |---------------------------------------------------------------------------|
 |---------------------------------------------------------------------------|

 |-------------20-13-15-17-20-17-15-13-22--20b22--22~~~~~--------------------|
 |-20-13-15-17---------------------------------------------------------------|
 |---------------------------------------------------------------------------|
 |---------------------------------------------------------------------------|
 |---------------------------------------------------------------------------|
 |---------------------------------------------------------------------------|
Добавлено: 10.10.2013
Другие материалы по этой песне:
  • Аккорды и текст

Страница создана 10.10.2013
http://primanota.ru/savage-messiah/plague-of-conscience-chords.htm
Привет, Гость.
Предлагаем пройти революционный курс по гитаре.
Подарок от PrimaNota.Ru, забирай!