PrimaNota.ru - самый крупный в мире бесплатный архив песенных текстов, аккордов, табулатур и нот


Savage Messiah - In Thought Alone - таба, видео

Регистрация Запомнить меня
Войти через:  Facebook Google Twitter Vk Yandex Mail.ru

Savage Messiah - In Thought Alone - таба, видео

Печатать
Просмотров: 134
Уроки эстрадного вокала в Санкт-Петербурге
From the album Plague of Conscience (c) Earache records 2012

www.earacherecords.com
www.savagemessiah.net
www.facebook.com/savagemessiahmetal
www.twitter.com/savagemessiah
www.youtube.com/savagemessiahmetal



Notation Legend.-
       % = repeat last bar
       / = slide up
       \ = slide down
       . = palm mute
       p = pull off
       h = hammer on
       /\/\/\ = vibrato (it's up to you if you want to use the bar or not)
       b«   = bend half step or equivalent
       pb«  = pre-bend
       br«  = bend and release
       pbr« = pre-bend and release

Tuning: C#, G#, c#, F#, A#, D#





   Solo (Dave):

 |---17~---/18--17-17-------17-22~--18-17-------------------|
 |--x---------------------18--------------/17-18---23-22~---|
 |-x--------------------19----------------------------------|
 |----------------------------------------------------------|
 |----------------------------------------------------------|
 |----------------------------------------------------------|

 |-18-20-17-18----18-----------------------------------------------------------------------|
 |-------------20----18-20-17-18----17-----------------------------------------------------|
 |-------------------------------19----17-19-15-17-14-15----14-------------------------14~-|
 |-------------------------------------------------------17----15-17-14-15----14-15-17-----|
 |-------------------------------------------------------------------------17--------------|
 |-----------------------------------------------------------------------------------------|


 |-------------------------------------------|
 |------------------------h--p--------h--h---|
 |---h--p--------h--h---14-15-14----14-15-17-|
 |-14-15-14----14-15-17----------17----------|
 |----------17-------------------------------|
 |-------------------------------------------|


                          h  p        h  h
 |---h--p--------h--h---17-18-17----17-18-20--20br(22)-20~-|
 |-17-18-17----17-18-20----------20------------------------|
 |----------19---------------------------------------------|
 |---------------------------------------------------------|
 |---------------------------------------------------------|
 |---------------------------------------------------------|


 |--------------------------------------------------------------|
 |-/22~---20br(22)-20~-----/18-17~-----/15-13-15----------------|
 |------------------------------------------------14br(15)-14~--|
 |--------------------------------------------------------------|
 |--------------------------------------------------------------|
 |--------------------------------------------------------------|
Добавлено: 24.10.2013
Другие материалы по этой песне:
  • Аккорды и текст

Страница создана 24.10.2013
http://primanota.ru/savage-messiah/in-thought-alone-chords.htm
Привет, Гость.
Предлагаем пройти революционный курс по гитаре.
Подарок от PrimaNota.Ru, забирай!