PrimaNota.ru - самый крупный в мире бесплатный архив песенных текстов, аккордов, табулатур и нот


Savage Messiah - All Seeing I - таба, видео

Регистрация Запомнить меня
Войти через:  Facebook Google Twitter Vk Yandex Mail.ru

Savage Messiah - All Seeing I - таба, видео

Печатать
Просмотров: 140
Уроки эстрадного вокала в Санкт-Петербурге
From the album Plague of Conscience (c) Earache Records 2012
 
www.earacherecords.com
www.savagemessiah.net
www.facebook.com/savagemessiahmetal
www.twitter.com/savagemessiah
www.youtube.com/savagemessiahmetal

Notation Legend.-                       
       % = repeat last bar
       / = slide up
       \ = slide down
       . = palm mute 
       p = pull off
       h = hammer on
       /\/\/\ = vibrato (it's up to you if you want to use the bar or not)
       b«   = bend half step or equivalent
       pb«  = pre-bend 
       br«  = bend and release
       pbr« = pre-bend and release

  Tuning: DGCFAD 
     Fast Rock = 180
   
   Intro:
  Gtr. 1  w/dist.
 |-----------------------------------|
 |-----------------------------------|
 |-----------------------------------|
 |--9----9-8---------8--7------------|
 |--7----7-6---6-7---10-9------------|
 |--7--0-----0-7-8-0------000000-----|


  Main Riff:

 |-----------------------------------------------------------|
 |-----------------------------------------------------------|
 |-----------------------------------------------------------|
 |-----------------------------3-------------8-7---7-5---5---|
 |-2---------------------------1-2-----------6-5---5-3---3-2-|
 |-0-0-300-100-300-300-100-300---0-0-300-100-6-5-0-5-3-0-3-0-|


 Verse Riff:

 |--------------------------------------------------|
 |--------------------------------------------------|
 |--------------------------------------------------|
 |-2-----2/3---2------2/3---2------2/3---3----------|
 |-2-----2/3---2------2/3---2------2/3---1----------|
 |--0000-----0---0000-----0---0000-----0----300-600-|


 Bridge:

 |------------------------------------------------|
 |------------------------------------------------|
 |------------------------------------------------|
 |------------------------------------------------|
 |-2---7/8-5----2---7/8-5----2---7/8-5----2-7/8-5-|
 |-0-0-5/6-3-00-0-0-5/6-3-00-0-0-5/6-3-00-0-5/6-3-|

 Chorus:

 |----------------------|
 |----------------------|
 |----------------------|
 |-----7-----------9-10-|
 |-2---5---8---7---7-8--|
 |-0---5---6---5---7-8--|

 Main Riff before middle bit:

 
 |---------------------------------------------------------|
 |---------------------------------------------------------|
 |---------------------------------------------------------|
 |-----------------------------3-------------8-7---7-5---5-|
 |-2---------------------------1-2-----------6-5---5-3---3-|
 |-0-0-300-100-300-300-100-300---0-0-300-100-6-5-0-5-3-0-3-|

 
Middle 8:

 |---0-----------------------0----------------------|
 |----0-----------------------0----------------0----|
 |-----3~----------------------5~---4--4-----0---0--|
 |---------------------------------5--5--5--4-4-4-4-|
 |-2--------8/7---5---5/7--2------7--7--7--3--------|
 |-0------0-6/5-0-3-0-3/5--0------------------------|


 Solo:

 |-------------------------------------------|
 |-------------------------------------------|
 |-------------------------------------------|
 |---9-8--------------------9-5--------12-11-|
 |-9-7-6-10-9-7--5-4-3-2--9-7-6-10-9-7-10-8--|
 |-7-----8--7-5--3-2-1-0--7-----8--7-5-------|


 |----------------------|
 |----------------------|
 |----------------------|
 |-----7-----------9-10-|
 |-2---5---8---7---7-8--|
 |-0---5---6---5---7-8--|


 Main Riff Before Outro:
 
 
 |------------------------------------------------------------|
 |------------------------------------------------------------|
 |------------------------------------------------------------|
 |-----------------------------3-------------8-7---7-6---6-5--|
 |-2---------------------------1-2-----------6-5---5-4---4-3--|
 |-0-0-300-100-300-300-100-300---0-0-300-100-6-5-0-5-4-0-4-3--|


 Outro:

 |-----------------------|
 |-----------------------|
 |-----------------------|
 |-----1-2-1-------------|
 |-----1-2-1-----3-----3-|
 |-000-------000-1-000-1-|

 |----------------------------------|
 |----------------------------------|
 |----------------------------------|
 |----------------------------------|
 |----------------------------------|
 |-000---000-000-000----000-000-000-|
Добавлено: 08.09.2013
Другие материалы по этой песне:
  • Аккорды и текст

Страница создана 08.09.2013
http://primanota.ru/savage-messiah/all-seeing-i-chords.htm
Привет, Гость.
Предлагаем пройти революционный курс по гитаре.
Подарок от PrimaNota.Ru, забирай!