PrimaNota.ru - самый крупный в мире бесплатный архив песенных текстов, аккордов, табулатур и нот


Saurom - Para Siempre - таба, видео

Регистрация Запомнить меня
Войти через:  Facebook Google Twitter Vk Yandex Mail.ru

Saurom - Para Siempre - таба, видео

Печатать
Просмотров: 96


SAUROM                          “Para siempre”


E|-------------------------------------------------------------------|
B|-------------------------------------------------------------------|
G|-------------------------------------------------------------------|
D|------4/2--1-------6---------2--4/6--------2-4/6--4--2-1-----------|
A|---4----------2/4----------2-----------2-4----------------2/4--6-2-|
E|-------------------------------------------------------------------|

E|-------------------------------------------------------------------|
B|-----------------------------2---2--2---0------------------------5-|
G|-------------2-----4------4------2--------2--6-------------6-----6-|
D|----2--4--6----2------2-------------------------4-------4-----4----|
A|--2--------------0------0--------0-----------4----4---4----------4-|
E|----------------------------------------------------4--------------|

E|---------------------------------------------------------0-------0-|
B|--------------------------------------------------------0-0------0-|
G|-6---------------2-------1-----1-----------------------1---1-----1-|
D|---4-------4--------4------2--------4---4-4--2—1/2----2-----2----2-|
A|-----4---4---4---2----2------2------2----------------2-------2---2-|
E|-------4--------------------------------------------0---------0--0-|
MI           Dom#
Mírame, he venido como siempre
         Mi
No habrá viento ni marea
          Solm#
Que me aparten de tu vera
         La                Dom#
Jamás volarán, las nubes del cielo
         La       Fam#         Mi
Si tus lágrimas no pudiera ahogar
          Dom#
Ni esta niebla ni la lluvia
       La    Sol#
Me sumirá en el desaliento
         Dom#
Contigo estaré
         La                Solm#
Muera el tiempo en el día de ayer
             Fa#
Hoy mi sangre callará
            Si
Solo por amor

Estribillo
Mi                             Si
Viviré, para siempre contigo estaré
Fa#            Dom#   Si
Mi pasión, es tu vida
Mi                               Si
Te daré, lo que el mundo no pueda tener
Fa#                  Dom#      Si     La
Por estar, junto a ti en la eternidad
       Si
En la eternidad

Siénteme
Como tantas otras veces
Que estas lagrimas que hoy sufren
Rieguen, todo el desaliento
Lo hagan desaparecer por completo
Y en tu oscura lid, vislumbres mi luz
Tiemble el suelo ruja el mar
Arda el cielo hasta quemar
Todo este rencor doy mi vida por su dolor
Cerrazón crepuscular, en mi corazón
Добавлено: 22.04.2012
Другие материалы по этой песне:
  • Аккорды и текст

Страница создана 22.04.2012
http://primanota.ru/saurom/para-siempre-chords.htm
Привет, Гость.
Предлагаем пройти революционный курс по гитаре.
Подарок от PrimaNota.Ru, забирай!