PrimaNota.ru - самый крупный в мире бесплатный архив песенных текстов, аккордов, табулатур и нот


Satyricon - Walk The Path Of Sorrow - аккорды и текст, таба, видео

Регистрация Запомнить меня
Войти через:  Facebook Google Twitter Vk Yandex Mail.ru

Satyricon - Walk The Path Of Sorrow - аккорды и текст, таба, видео

Печатать
Просмотров: 139
Walk The Path Of Sorrow
Satyricon
p=pull-off
/=slide
...=tremolo
h=hammer-on
pm=palm mute
 
Riff 1
(this is played fast up and down put I think It sounds better with just downstrokes,
keeping in time with the snare)
[-----------------------------------------------------------------------------
-----------------------------------------------------------------------------
-----------------------------------------------------------------------------
----7-7-7-7-7-7-7-7-7-7-7-7-7--5-5-5-7-8-8-8-8-8-8-8-8-8-8-8-8-10-10-10-10---
----7-7-7-7-7-7-7-7-7-7-7-7-7--5-5-5-7-8-8-8-8-8-8-8-8-8-8-8-8-10-10-10-10---
----5-5-5-5-5-5-5-5-5-5-5-5-5--3-3-3-5-6-6-6-6-6-6-6-6-6-6-6-6--8--8--8--8---]

Classical Rythm Part
[---------------------------------0--------------
-------3--------3-------3-----------3-----3-----
----------2--------2-------2-----------2-----2--
---0---------0--------0-------0-----------------
------------------------------------------------
------------------------------------------------]

Classical lead (listen to the song)
[-----------------------------------------------------------------------------------------------------------
-----------------------------------------------------------------------------------------------------------
-----------------------------------------------------------------------------------------------------------
--3--2--0-------------0---2--2h3--2p0---0------------------------3-2-3-2-3-2--3--2--0---------------
-----------3--2--0--------------------------3--2--0-------------------------------------3--2--0------------
-------------------------------------------------------3--2--0-----------------------------------3--2--0---]

Last Chord
[------
--3---
--2---
--0---
--0---
------]

Back to Riff 1

Riff 2 (Follows choir)
[-----------------------------------------------------------------------
-----------------------------------------------------------------------
-----------------------------------------------------------------------
--7-7-7-7-7-7-7-7--7-7-7-7-7-7-7-7--8-8-8-8-8-8-8--2222222222222222----
--7-7-7-7-7-7-7-7--7-7-7-7-7-7-7-7--8-8-8-8-8-8-8--2222222222222222----
--5-5-5-5-5-5-5-5--5-5-5-5-5-5-5-5--6-6-6-6-6-6-6--0000000000000000----]

Riff 3 } x4
[-----------------------------------------
-----------------------------------------
-----------------------------------------
--77777777--55555555---------------------
--55555555--33333333---7777777777777777--
-----------------------5555555555555555--]

Riff 4 } x4
[-----------------------------------------------
-----------------------------------------------
-----------------------------------------------
---777777--66--88888888---777777--66--55-------
---555555--44--66666666---555555--44--33--77---
------------------------------------------55---]

Riff 5 untill songs end
[---------------------------------------------------------------
---------------------------------------------------------------
-666666666666--444444-333-444--666666666666---444444-333-444---
-666666666666--444444-333-444--6666666666666--444444-333-444---
-444444444444--222222-111-222--4444444444444--222222-111-222---
---------------------------------------------------------------

----------------------------------------------------------------
----------------------------------------------------------------
-888888888888--444444--333-444--888888888888--444444--333--444--
-888888888888--444444--333-444--888888888888--444444--333--444--
-666666666666--222222--111-222--666666666666--222222--111--222--
----------------------------------------------------------------]
Добавлено: 13.01.2014
Другие материалы по этой песне:
  • Аккорды и текст

Страница создана 01.04.2012
http://primanota.ru/satyricon/walk-the-path-of-sorrow-chords.htm
Привет, Гость.
Предлагаем пройти революционный курс по гитаре.
Подарок от PrimaNota.Ru, забирай!