PrimaNota.ru - самый крупный в мире бесплатный архив песенных текстов, аккордов, табулатур и нот


Satyricon - The Dawn Of A New Age - текст песни, таба, видео

Регистрация Запомнить меня
Войти через:  Facebook Google Twitter Vk Yandex Mail.ru

Satyricon - The Dawn Of A New Age - текст песни, таба, видео

Печатать
Просмотров: 152
Уроки эстрадного вокала в Санкт-Петербурге
Date: Mon, 22 Dec 1997 11:26:56 +0300 (MEST)
From: Kamil Serkan Gunturk 
Subject: The Dawn of A New Age by Satyricon (fwd)

"The Dawn Of a New Age" by SATYRICON from the album Nemesis Divina.

Transcribed by Serkan Gunturk ( gunturkk@boun.edu.tr ).
Visit my home of black metal and guitar tabs at:

http://www.geocities.com/SunsetStrip/Venue/8948/index.html


     The Dawn of A New Age

"And I looked, and behold a pale horse:
And his name that sat on him was Death
and Hell followed him. And power was given
unto them over the fourth part of the earth,
to kill with sword, and with hunger, and with death,
and with the beasts of the earth".

And then again "I saw and beheld, a black horse;
And he that sat on him had a scythe; And a crown
was given unto him and he went forth conquering, and to conquer.
And there was a great earthquake, and the sun became black
as sackcloth of hair, and the moon became as blood.

And the stars of heaven  fell unto the earth,
even as a fig tree castethher untimely figs,
when she is shaken of a mighty wind. And the heaven
departed as a scroll when it is rolled together,
and every mountain and island were moved out of their places."
Almighty mountains and rocks, I beg you fall on them.

For the great day of wrath is coming, and who shall be able to stand?

Intro:

E-|-0----------0--------------------------------------------------------------|
B-|-0----------0--------------------------------------------------------------|
G-|-1----------3--------------------------------------------------------------|
D-|-2----------2--------------------------------------------------------------|
A-|-2----------2--------------------------------------------------------------|
E-|-0----------0--------------------------------------------------------------|

      keyboard
E-|-------------0-------------------------------------------------------------|
B-|---------------0-----------------------------------------------------------|
G-|---------3-------3---------------------------------------------------------|
D-|-------2-----------2-------------------------------------------------------|
A-|-----2---------------------------------------------------------------------|
E-|---0-----------------------------------------------------------------------|

This is Armageddonnnnn!

Riff 1 (4 times)

E-|---------------------------------------------------------------------------|
B-|---------------------------------------------------------------------------|
G-|---------------------------------------------------------------------------|
D-|-9-9-9------------------------------------10-10-10-7-7-7-------------------|
A-|-------10-10-10-------7-7-7---10-10-9-9-9----------------------------------|
E-|----------------7-7-7-------7----------------------------------------------|


E-|---------------------------------------------------------------------------|
B-|---------------------------------------------------------------------------|
G-|---------------------------------------------------------------------------|
D-|-9-9-9----------9-9-9-------7-7-7-------7-7-7------------------------------|
A-|-------10-10-10-------7-7-7-------8-8-8-------8-8-8------------------------|
E-|---------------------------------------------------------------------------|

Riff 2 (12 times)


E-|---------------------------------------------------------------------------|
B-|---------------------------------------------------------------------------|
G-|---------------------------------------------------------------------------|
D-|---------------------------------------------------------------------------|
A-|-------7-7-7-10-10-10-------7-7-7-10-10-10-6-9-6-9-6-9---------------------|
E-|-0-0-0----------------0-0-0------------------------------------------------|

Riff 3 (4 times)

E-|---------------------------------------------------------------------------|
B-|---------------------------------------------------------------------------|
G-|---------------------------------------------------------------------------|
D-|---------------------------------------------------------------------------|
A-|-------2-2-2-------2-2-2-------2-2-2--------3-3-3--------------------------|
E-|-0-0-0-------0-0-0-------0-0-0--------3-3-2--------------------------------|


E-|---------------------------------------------------------------------------|
B-|---------------------------------------------------------------------------|
G-|---------------------------------------------------------------------------|
D-|-------------------------------------5-5-5-4-4-4---------------------------|
A-|-------2-2-2-------2-2-2-------2-2-2---------------------------------------|
E-|-0-0-0-------0-0-0-------0-0-0---------------------------------------------|


Riff 4

E-|---------------------------------------------------------------------------|
B-|-5-----4-----5-------------------------------------------------------------|
G-|-4---3-----4-------4-------------------------------------------------------|
D-|-2-1-----2-----------5-2---2-5---2-4-----2---------------------------------|
A-|-------------------------2-----2-------2-----------------------------------|
E-|---------------3-2-------------------3-------------------------------------|

Play riff 3 (4 times)


Riff 5

E-|---------------------------------------------------------------------------|
B-|-5-----4-----5-------------------------------------------------------------|
G-|-4---3-----4-------4-------------------------------------------------------|
D-|-2-1-----2-----------5-2---2-5---------------------------------------------|
A-|-------------------------2-----3-3-3-2-2-2---------------------------------|
E-|---------------3-2-------------------------3-3-3-2-2-2---------------------|


Riff 6 (4 times)

E-|---------------------------------------------------------------------------|
B-|---------------------------------------------------------------------------|
G-|-------9\(4)---------------------------------------------------------------|
D-|-------9\(4)-------9-11-12-13-12-----9----10h11p10----------9-10-----------|
A-|-------7\(2)-------7-9--10-11-10---7---8-----------11-12-12------11--------|
E-|-0-0-0-------0-0-0---------------0-----------------------------------------|


E-|---------------------------------------------------------------------------|
B-|---------------------------------------------------------------------------|
G-|---------------------------------------------------------------------------|
D-|---2-4-----2---------------------------------------------------------------|
A-|-2-------2-----------------------------------------------------------------|
E-|-------3-------------------------------------------------------------------|


Riff 7 (10 times)

E-|---------------------------------------------------------------------------|
B-|---------------------------------------------------------------------------|
G-|---------------------------------------------------------------------------|
D-|---------------------------------------------------------------------------|
A-|-------------------------10-10-10-9-9-9------------------------------------|
E-|-0-0-0-7-7-7-0-0-0-7-7-0---------------------------------------------------|


E-|---------------------------------------------------------------------------|
B-|---------------------------------------------------------------------------|
G-|---------------------------------------------------------------------------|
D-|---------------------------------------------------------------------------|
A-|-------------------------7-7-7-6-6-6-10-10-10-9-9-9------------------------|
E-|-0-0-0-7-7-7-0-0-0-7-7-7---------------------------------------------------|


Riff 8 (4 times)

E-|---------------------------------------------------------------------------|
B-|---------------------------------------------------------------------------|
G-|---------8-9-------12------11-----5-----4----------------------------------|
D-|---9-----8-9----12------11------5-----4------------------------------------|
A-|-2-7-----6-7-10-------9-------3-----2------2-------------------------------|
E-|-0---0-0-------------------------------------3-2---------------------------|

                                      Fill
E-|----------------------------------|----------------------------------------|
B-|----------------------------------|----------------------------------------|
G-|---------8-9----------------------|-4--------------------------------------|
D-|---9-----8-9-12-12\11-11-11-------|---5-2-----2----------------------------|
A-|-2-7-----6-7-10-10\9--9--9--2-----|---------2------------------------------|
E-|-0---0-0----------------------3---|-------0-------0------------------------|

Riff 9
    acoustic part
E-|--------------|------------------------------------------------------------|
B-|--------------|------------------------------------------------------------|
G-|-------0------|--------5---------------------------------------------------|
D-|-----2---2----|------5---5-------------------------------------------------|
A-|---2-------2--|----7-------7-----------------------------------------------|
E-|-0------------|--8---------------------------------------------------------|


         Riff 10 (10 times)
E-|----|----------------------------------------------------------------------|
B-|----|----------------------------------------------------------------------|
G-|-4--|----------------------------------------------------------------------|
D-|-2--|----------------------------------------------------------------------|
A-|-0--|----------------------------------------------------------------------|
E-|-0--|--3-3-3-3-3-2-2-2-2-2-2-2-2-2-3-3-3-3-3-2-2-2-2-2-2-2-2-2-------------|


E-|---------------------------------------------------------------------------|
B-|---------------------------------------------------------------------------|
G-|---------------------------------------------------------------------------|
D-|---------------------------------------------------------------------------|
A-|-2-2-2-2-2-3-3-3-3-3-3-3-3-3-2-2-2-2-2-3-3-3-3-3-3-3-3-3-------------------|
E-|---------------------------------------------------------------------------|

Riff 11 (6 times)
E-|---------------------------------------------------------------------------|
B-|---------------------------------------------------------------------------|
G-|---------------------------------------------------------------------------|
D-|---------------------------------------------------------------------------|
A-|-2-2-2-2-3-3-3-3-5-5-5-5-2-2-2-2-3-3-2-2-0-0-0-0---------0-0-0-0-2-2-2-2---|
E-|-------------------------------------------------4-4-4-4-------------------|


E-|---------------------------------------------------------------------------|
B-|---------------------------------------------------------------------------|
G-|---------------------------------------------------------------------------|
D-|---------------------------------------------------------------------------|
A-|-0-0-0-0---------0-0-0-0-2-2-2-2-3-3-2-2-2-2-------------------------------|
E-|---------4-4-4-4-----------------------------------------------------------|


Riff 12(4 times)
E-|---------------------------------------------------------------------------|
B-|---------------------------------------------------------------------------|
G-|---------------------------------------------------------------------------|
D-|-2-2-------2-2-------7-7-------7-4-3---------------------------------------|
A-|-0-0-2-2-2-0-0-2-2-2-5-5-5-5-5-5-2-1---------------------------------------|
E-|---------------------------------------------------------------------------|


E-|---------------------------------------------------------------------------|
B-|---------------------------------------------------------------------------|
G-|---------------------------------4-5---------------------------------------|
D-|-2-2-------2-2-------7-7-------7-------------------------------------------|
A-|-0-0-0-0-0-0-0-0-0-0-5-5-5-5-5-5-------------------------------------------|
E-|---------------------------------------------------------------------------|

Riff 13 (4 times)
E-|---------------------------------------------------------------------------|
B-|---------------------------------------------------------------------------|
G-|---------------------------------------------------------------------------|
D-|-2---------2---------7---------7-4-3---------------------------------------|
A-|-0---0-0-0-0---0-0-0-5---5-5-5-5-2-1---------------------------------------|
E-|---------------------------------------------------------------------------|


E-|---------------------------------------------------------------------------|
B-|---------------------------------------------------------------------------|
G-|---------------------------------4-5---------------------------------------|
D-|-2---------2---------7---------7-------------------------------------------|
A-|-0---0-0-0-0---0-0-0-5---5-5-5-5-------------------------------------------|
E-|---------------------------------------------------------------------------|


Riff 14 (4 times)

E-|---------------------------------------------------------------------------|
B-|---------------------------------------------------------------------------|
G-|---------------------------------------------------------------------------|
D-|-----4-4-----4-4-----4-4-----5-5-------------------------------------------|
A-|-----2-2-----2-2-----2-2-----3-3-------------------------------------------|
E-|-0-0-----0-0-----0-0-----3-3-----------------------------------------------|


E-|---------------------------------------------------------------------------|
B-|---------------------------------------------------------------------------|
G-|---------------------------------------------------------------------------|
D-|-----4-4-----4-4-----4-4-5-5-4-4-------------------------------------------|
A-|-----2-2-----2-2-----2-2---------------------------------------------------|
E-|-0-0-----0-0-----0-0-------------------------------------------------------|


last one:

E-|---------------------------------------------------------------------------|
B-|-5-----4-----5-------------------------------------------------------------|
G-|-4---3-----4--------4------------------------------------------------------|
D-|-2-1-----2------------5-2-----2--------------------------------------------|
A-|----------------------------2----2-----------------------------------------|
E-|---------------3-2--------3------0-.---------------------------------------|


For corrections please email me at:

gunturkk@boun.edu.tr
Добавлено: 05.07.2012
Другие материалы по этой песне:

Страница создана 30.04.2012
http://primanota.ru/satyricon/the-dawn-of-a-new-age-chords.htm
Привет, Гость.
Предлагаем пройти революционный курс по гитаре.
Подарок от PrimaNota.Ru, забирай!