PrimaNota.ru - самый крупный в мире бесплатный архив песенных текстов, аккордов, табулатур и нот


Satyricon - Taakeslottet - аккорды и текст, таба, видео

Регистрация Запомнить меня
Войти через:  Facebook Google Twitter Vk Yandex Mail.ru

Satyricon - Taakeslottet - аккорды и текст, таба, видео

Печатать
Просмотров: 139
Taakeslottet
Satyricon
Legend:
~ vibrato
/ slide up
 slide down
 
Riff 1 all notes tremolo
----------------------------------------
----------------------------------------
----------------------9-10-7------------
----9-10-7-----9-10-7------------9-10-7-
--0----------0-----------------0--------
----------------------------------------

----------------------------
----------------8-----------
-----------9-10---10-9-10---
----9-10-7------------------
--0-------------------------
----------------------------

Riff 2
-----------------------------------------------------------
-----------------------------------------------------------
-----------------------------------------------------------
-----------------------------------------------------------
----7-9-10-9-7~--9--7------------7-9-10-9-7~--9--7---------
-0---------------------8~-----0---------------------8-7~---

-------------------------------------------------------------
-------------------------------------------------------------
-------------------------------------------------------------
----------------------7--------------------------------------
---7--9-10-9-7~--9-10---10-9-10-----7-9-10-9-7~--9--7--------
-0-------------------------------0---------------------8-7~--

Riff 3
------------------------------------
------------------------------------
------54---54---------54-----5---
--2---54---54-----2---54--5--5---
--2---32---32-----2---32-----3---
--0-----------------0---------------

Riff 4
----------------------------------------
----------------------------------------
----------------------------------------
------------9-10---------7--------------
----9-10-7----------9-10---10-9---------
-7---------------7----------------10--8-

Riff 5
-----------------------------------------------------------------
-----------------------------------------------------------------
-----------------------------------------------7-----------------
---------9-10----------------------------9-10----10--9-10--------
-0---7-8------8---8--7--6--7------0--7-8------------------8--7---
-----------------------------------------------------------------
twice                 twice

Riff 5-A                ending
-----------------------------------------------------
-----------------------------------------------------
------------------------------------------------7----
---------9--10-----------------------------9-10---10~
-0---7-8-------8---8--7--6--7------0--7-8------------
-----------------------------------------------------

Riff 6                 riff 6-A
---------------------------------------------------------------
---------------------------------------------------------------
--------------------------------------------------------9------
------------------9--10-7-9---------------------9-10-7----10-9-
-----7-9-10-9-7--------------------7-9-10-9-7------------------
--0-----------------------------0------------------------------

Riff 6-B
-------------------------------
-------------------------------
-------------------------------
-----------------9--10-7-9-7---
----7-9--10-9-7--------------10
-0-----------------------------
Добавлено: 16.12.2013
Другие материалы по этой песне:

Страница создана 16.03.2012
http://primanota.ru/satyricon/taakeslottet-chords.htm
Привет, Гость.
Предлагаем пройти революционный курс по гитаре.
Подарок от PrimaNota.Ru, забирай!