PrimaNota.ru - самый крупный в мире бесплатный архив песенных текстов, аккордов, табулатур и нот


Satyricon - Repined Bastard Nation - аккорды и текст, таба, видео

Регистрация Запомнить меня
Войти через:  Facebook Google Twitter Vk Yandex Mail.ru

Satyricon - Repined Bastard Nation - аккорды и текст, таба, видео

Печатать
Просмотров: 162
Repined Bastard Nation
Satyricon
Tune all guitars 1/2 step
 
riff 1
----------------------------------------------------------------------------------
----------------------------------------------------------------------------------
----------------------------------------------------------------------------------
---------------------6---------------6--------------------------------------------
--7---7-5-7-5-7-5--7-------7---7-5-7-------7---7-5-7-5-7-5-7-8~----7---7-5-7------
--0------------------------0---------------0----------------------0---------5-7-8-
                                           ^A.H.
riff 2 (tremolo picking part)
----------------------------------------------------------------------------------
----------------------------------------------------------------------------------
---------9~-10~-9~------8~--------------------------------------------------------
--------------------10~--------9~-------------------------------------------------
----7~-----------------------------10~----8~--------------------------------------
----------------------------------------------------------------------------------
riff 2b
----------------------------------------------------------------------------------
----------------------------------------------------------------------------------
----------------------------------------------------------------------------------
---x--2-2----x--2-2----x--2-2----x--2-2----x--2-2---------------------------------
---x--2-2----x--2-2----x--2-2----x--2-2----x--2-2---------------------------------
---x--0-0----x--0-0----x--0-0----x--0-0----x--0-0---------------------------------
Bridge
----------------------------------------------------------------------------------
----------------------------------------------------------------------------------
-----9----------------------------------------------------------------------------
-----x----------------------------------------------------------------------------
-----7----------------------------------------------------------------------------
-----0----------------------------------------------------------------------------
           ^dive all notes
                                 this is all i can tab...
Добавлено: 02.08.2013
Другие материалы по этой песне:

Страница создана 01.03.2012
http://primanota.ru/satyricon/repined-bastard-nation-chords.htm
Привет, Гость.
Предлагаем пройти революционный курс по гитаре.
Подарок от PrimaNota.Ru, забирай!