PrimaNota.ru - самый крупный в мире бесплатный архив песенных текстов, аккордов, табулатур и нот


Satyricon - King Of The Shadowthrone - аккорды и текст, таба, видео

Регистрация Запомнить меня
Войти через:  Facebook Google Twitter Vk Yandex Mail.ru

Satyricon - King Of The Shadowthrone - аккорды и текст, таба, видео

Печатать
Просмотров: 216
Новый альбом группы 'Черный Кузнец' по культовому сериалу 'Сверхъестественное'!
King Of The Shadowthrone
Satyricon
		   SATYRICON
"THE KING OF THE SHADOWTHRONE"
FROM THE LP "THE SHADOWTHRONE"

Tabbed by Board (Anders Pedersen): mc_nyregrus@hotmail.com

Riff A:
			  Play 6X
|--------------------------------|
|--------------------------------|
|--------------------------------|
|--------------------------------|
|00007777333355552222555533332233|
|--------------------------------|

Riff B:
|-------------------------------------------------------------
|-------------------------------------------------------------
|------------------------------------------444444224455444444-
|------------------------------------222222-------------------
|7777778877--7777778877--7777778877---------------------------
|----------77----------77----------77-------------------------

	   	     Play 2X
--------------------------|
--------------------------|
99999955555599101099777777|
--------------------------|
--------------------------|
--------------------------|
		(End Riff B)


Play Riff A 4X
Play Riff B 2X

Riff C:
_______________________________    ____________
|1.,2.				   |3.
|--------------------------------| |--------------------------|
|--------------------------------| |--------------------------|
|--------------------------------| |--------------------------|
|--------------------------------| |--------------------------|
|00003333000033330000333322222222| |0000333300003333222233220-|
|--------------------------------| |--------------------------|


Riff D:
|--------------------------------|
|--------------------------------|
|--------------------------------|
|22222222222277773333333300000000|
|00000000000055551111111111111111|
|--------------------------------|
Play 2 times before drums come in

Riff D 4X


Riff E:			   Play 4X
|--------------------------------|
|--------------------------------|
|--------------------------------|
|22222222222222223333333377777777|
|00000000000000001111111155555555|
|--------------------------------|

Riff E 2X in Ѕ tempo with chords instead of fast picking.

Riff B 2X

Riff F:		       ______   ___
		      |1.      |2.
|----------------------------| |------|
|----5------6------5---------| |------|
|---44-----55-----44------4--| |------|
|2------3------2---------44--| |---3--|
|---------------------2------| |--33--|
|----------------------------| |1-----|

Riff G:
____________________
|1.,4.,7.
|--------------------------------|
|---55-----6-8-----55------------|
|---44-----5-7-----44--4---------|
|2------3----5---2-----2-5-5\-4-4|
|------------------------3-3\-2-2|
|--------------------------------|


____________________		 _____________
|2.,5.				|3.,6.
|-----------------------------| |-----------------------------|
|---55-----66-----55----------| |---55-----66-----55----------|
|---44-----55-----44----------| |---44-----55-----44----------|
|2------3-------2-----4---4-4-| |2------3-------2-------------|
|---------------------2---2-2-| |---------------------3---3-3-|
|-----------------------------| |---------------------1---1-1-|


Riff H:
							   Play 4x
|----------------------------------------------------------------|
|----------------------------------------------------------------|
|4444444444444444555555555555555599999999999999998888888888885555|
|2222222222222222333333333333333377777777777777776666666666663333|
|----------------------------------------------------------------|
|----------------------------------------------------------------|


RIff I:

|--------------------------------------------
|--------------------------------------------
|4--4-4-4-4-4--4-4-4-4-5--5-5-5-5-5--5-5-5-5-
|2--2-2-2-2-2--2-2-2-2-3--3-3-3-3-3--3-3-3-3-
|--------------------------------------------
|--------------------------------------------

---------------------------------------
---------------------------------------
9--9-9-9-9-9--9-9-9-9-8--8-8-8-8-8--5-- Play 'til here the
7--7-7-7-7-7--7-7-7-7-6--6-6-6-6-6--3-- last time and end
--------------------------------------- with an E on the 4th
--------------------------------------- string.


------------------------------------------
------------------------------------------
4--4-4-4-4-4--4-4-4-4---------------------
2--2-2-2-2-2--2-2-2-2-5--5-5-5-5-5--5--7--
----------------------3--3-3-3-3-3--3--5--
------------------------------------------

				    Play 6ЅX
------------------------------------------|
------------------------------------------|
4--4-4-4-4-4--4-4-4-4---------------------|
2--2-2-2-2-2--2-2-2-2-5--5-5-5-5-5--5--4--|
----------------------3--3-3-3-3-3--3--2--|
------------------------------------------|
				(End Riff I)


Acoustic part:

Riff J
                           Play 4X
|---------------------------------|
|-------0----------0----------0---|
|-----2---2------2---2------0---0-|
|---2----------2----------0-------|
|0----------3----------2----------|
|---------------------------------|

Riff K
|-----------------------------------|
|-----------------------------------|
|--------------------0----------0---|
|-----0------------2---2------2---2-|
|---0------------2----------2-------|
|3-------2-3--0----------0----------|

Electric guitar comes in on the E (Electric guitar plays the same)

|Riff J + Riff K| X7

End with an open E5 chord.     
Добавлено: 07.11.2013
Другие материалы по этой песне:

Страница создана 27.02.2012
http://primanota.ru/satyricon/king-of-the-shadowthrone-chords.htm
Привет, Гость.
Предлагаем пройти революционный курс по гитаре.
Подарок от PrimaNota.Ru, забирай!