PrimaNota.ru - самый крупный в мире бесплатный архив песенных текстов, аккордов, табулатур и нот


Satyricon - Hvite Krists Dod - аккорды и текст, таба, видео

Регистрация Запомнить меня
Войти через:  Facebook Google Twitter Vk Yandex Mail.ru

Satyricon - Hvite Krists Dod - аккорды и текст, таба, видео

Печатать
Просмотров: 218
Hvite Krists Dod
Satyricon
Riff 1 (4 times)
[E  +--------------------------------------------------------+
B  --------------------------------------------------------
G  --------------------------------------------------------
D  --------------------------------------------------------
A  5-5-8-8-8-8-8-8-8-8-8-8-5-5-8-8-8-8-8-8-----------------
E  +--------------------------------------------------------+
 
E  +--------------------------------------------------------+
B  --------------------------------------------------------
G  --------------------------------------------------------
D  --------------------------------------------------------
A  3-3-3-3-7-7-8-8-8-8-8-8-8-8-8-8-5-5-7-7-7-7-7-7---------
E  +--------------------------------------------------------+

E  +--------------------------------------------------------+
B  --------------------------------------------------------
G  --------------------------------------------------------
D  --------------------------------------------------------
A  3-3-5-5-7-7-8-8-8-8-8-8-8-8-8-8-5-5-7-7-7-7-7-7---------
E  +--------------------------------------------------------+

E  +--------------------------------------------------------+
B  --------------------------------------------------------
G  --------------------------------------------------------
D  --------------------------------------------------------
A  3-3-3-3-3-3-2-2-2-2-2-2-2-2-2-2-------------------------
E  +--------------------------------3-3-5-5-5-5-5-5---------+

E  +--------------------------------------------------------+
B  --------------------------------------------------------
G  --------------------------------------------------------
D  --------------------------------------------------------
A  7-7-7-7-5-5-3-3-3-3-3-3-2-2-2-2-3-3-5-5-5-5-5-5---------
E  +--------------------------------------------------------+

E  +--------------------------------------------------------+
B  --------------------------------------------------------
G  --------------------------------------------------------
D  --------------------------------------------------------
A  3-3-3-3-2-2---------------------------------------------
E  +------------4-4-4-4-4-4-5-5-5-5-5-5-5-5-5-5-5-5-5-5-5-5-+]

Riff 2 (6 times)
[E  +--------------------------------------------------------+
B  --------------------------------------------------------
G  --------------------------------------------------------
D  12-11-9-8-9-11-11-12-14-11-12-11-9-8--------------------
A  10-9--7-6-7-9--9--10-12-9--10-9--7-6-10-9-10------------
E  +-------------------------------------8--7-8-------------+]

Play riff 1 and 2 again
Keyboard ...

Riff 3
[E  +--------------------------------------------------------+
B  --------------------------------------------------------
G  --------------------------------------------------------
D  --------------------------------------------------------
A  ------------2-2-2-2-2-2-------------2-2-2-2-2-2---------
E  +0-0-0-0-0-0-------------0-0-0-0-0-0---------------------+

E  +--------------------------------------------------------+
B  --------------------------------------------------------
G  --------------------------------------------------------
D  --------------------------------------------------------
A  ------------2-2-2-2-2-2-------------2-2-2-2-2-2---------
E  +0-0-0-0-0-0-------------0-0-0-0-0-0---------------------+

E  +--------------------------------------------------------+
B  --------------------------------------------------------
G  --------------------------------------------------------
D  --------------------------------------------------------
A  ------------3-3-3-3-3-3-------------3-3-3-3-3-3---------
E  +0-0-0-0-0-0-------------0-0-0-0-0-0---------------------+

E  +--------------------------------------------------------+
B  --------------------------------------------------------
G  --------------------------------------------------------
D  ------------------------------------2-2-2-2-2-2---------
A  ------------0-0-0-0-0-0-3-3-3-3-3-3---------------------
E  +1-1-1-1-1-1---------------------------------------------+

E  +--------------------------------------------------------+
B  --------------------------------------------------------
G  --------------------------------------------------------
D  ------------2-2-2-2-2-2---------------------------------
A  3-3-3-3-3-3---------------------------------------------
E  +--------------------------------------------------------+

E  +--------------------------------------------------------+
B  --------------------------------------------------------
G  --------------------------------------------------------
D  --------------------------------------------------------
A  ------------2-2-2-2-2-2-------------2-2-2-2-2-2---------
E  +0-0-0-0-0-0-------------0-0-0-0-0-0---------------------+

E  +--------------------------------------------------------+
B  --------------------------------------------------------
G  --------------------------------------------------------
D  --------------------------------------------------------
A  ------------2-2-2-2-2-2-------------2-2-2-2-2-2---------
E  +0-0-0-0-0-0-------------0-0-0-0-0-0---------------------+

E  +--------------------------------------------------------+
B  --------------------------------------------------------
G  --------------------------------------------------------
D  --------------------------------------------------------
A  ------------3-3-3-3-3-3-------------3-3-3-3-3-3---------
E  +0-0-0-0-0-0-------------0-0-0-0-0-0---------------------+

E  +--------------------------------------------------------+
B  --------------------------------------------------------
G  --------------------------------------------------------
D  ------------------------------------5-5-5-5-5-5---------
A  ------------0-0-0-0-0-0-3-3-3-3-3-3---------------------
E  +1-1-1-1-1-1---------------------------------------------+

E  +--------------------------------------------------------+
B  --------------------------------------------------------
G  --------------------------------------------------------
D  4-4-4-4-4-4-2-2-2-2-2-2---------------------------------
A  ------------------------3-3-3-3-3-3-2-2-2-2-2-2---------
E  +--------------------------------------------------------+

E  +--------------------------------------------------------+
B  --------------------------------------------------------
G  --------------------------------------------------------
D  --------------------------------------------------------
A  --------------------------------------------------------
E  +3-3-3-3-3-3-2-2-2-2-2-2-3-3-3-3-3-3-2-2-2-2-2-2---------+]

Riff 4
[E  +--------------------------------------------------------+
B  --------------------------------------------------------
G  --------------------------------------------------------
D  5-5-5-5-5-5-5-5-5-5-5-5-7-7-7-7-8-8-8-8-8-8-8-8---------
A  0-0-0-0-0-0-0-0-0-0-0-0-0-0-0-0-0-0-0-0-0-0-0-0---------
E  +6-6-6-6-6-6-6-6-6-6-6-6-6-6-6-6-6-6-6-6-6-6-6-6---------+]
    .       .       .       .       .       .
[E  +--------------------------------------------------------+
B  --------------------------------------------------------
G  --------------------------------------------------------
D  7-7-7-7-7-7-7-7-7-7-7-7-7-7-7-7-7-7-7-7-7-7-7-7---------
A  0-0-0-0-0-0-0-0-0-0-0-0-0-0-0-0-0-0-0-0-0-0-0-0---------
E  +5-5-5-5-5-5-5-5-5-5-5-5-5-5-5-5-5-5-5-5-5-5-5-5---------+]
    .       .       .       .       .       .
[E  +--------------------------------------------------------+
B  --------------------------------------------------------
G  --------------------------------------------------------
D  7-7-7-7-------------------------------------------------
A  0-0-0-0-------------------------------------------------
E  +5-5-5-5-------------------------------------------------+]
    .

Riff 5
[E  +--------------------------------------------------------+
B  ----------------------------4-3-1-0---------------------
G  --------------------------------------------------------
D  ------0---1---------0---1-------------------------------
A  2-2-2---2---3-2-2-2---2---3-----------------------------
E  +--------------------------------------------------------+]

Riff 6
[E  +--------------------------------------------------------+
B  --------------------------------------------------------
G  --------------------------------------------------------
D  7-7-7-7-10-10-10-6-6-6----------------------------------
A  5-5-5-5-8--8--8--4-4-4----------------------------------
E  +--------------------------------------------------------+]

Riff 7
[E  +--------------------------------------------------------+
B  ----------4---------------------------------------------
G  ----7-----5-------7-------8-----------------------------
D  --7-----5---5---7---7---8---8---------------------------
A  5-----3-------5-------6---------------------------------
E  +--------------------------------------------------------+]

Riff 8
[E  +--------------------------------------------------------+
B  --------------------------------------------------------
G  --------------------------------------------------------
D  7-7-7-8-8-8-8-8-811/12-12-11-11/12----------------------
A  5-5-5-6-6-6-6-6-6-9/10-10--9--9/10----------------------
E  +--------------------------------------------------------+]
"Borte var de av guds jord, bak en mork sky manen sa ra og kald"

Riff 9
[E  +--------------------------------------------------------+
B  --------------------------------------------------------
G  --------------------------------------------------------
D  7-7-7-7-7-7-10-10-10-6-6-6------------------------------
A  5-5-5-5-5-5-8--8--8--4-4-4------------------------------
E  +--------------------------------------------------------+]
"Sungen er siste tone av en gravsang"
Добавлено: 07.10.2013
Другие материалы по этой песне:
  • Аккорды и текст

Страница создана 06.03.2012
http://primanota.ru/satyricon/hvite-krists-dod-chords.htm
Привет, Гость.
Предлагаем пройти революционный курс по гитаре.
Подарок от PrimaNota.Ru, забирай!