PrimaNota.ru - самый крупный в мире бесплатный архив песенных текстов, аккордов, табулатур и нот


Satyajit Ray - Feluda Theme - таба, видео

Регистрация Запомнить меня
Войти через:  Facebook Google Twitter Vk Yandex Mail.ru

Satyajit Ray - Feluda Theme - таба, видео

Печатать
Просмотров: 120
-------------------------------------------------------------------------------
                             Feluda Theme - Satyajit Ray
-------------------------------------------------------------------------------
Tabbed by:Shadow9d
E-mail:nawazmanu@gmail.com

Tuning:Standard

e|------------------------------------------|
B|----------7-7-8-7-------------------------|
G|7-7-6-7-9---------9--7-7-6h7-------7-6-7--|
D|-----------------------------8-7-8--------|
A|------------------------------------------|
E|------------------------------------------| x2

e|---------------------------------------------------------------------------|
B|---------------------------------------------10------10--10----------------|
G|--7-6-7----7-6-7----7---7---7---7--~10--7-10----7-10--------10--6h7p6h7----|
D|8--------8--------8---8---8---8--------------------------------------------|
A|---------------------------------------------------------------------------|
E|---------------------------------------------------------------------------|

This are the main two riffs that have been repeated.....Its based in D major scale..you can play it any position
you want.....adjust your timing with the real song

This my first tab hope guys liked it :-)


************************************

| /   slide up
| \   slide down
| h   hammer-on
| p   pull-off
| ~   vibrato
| +   harmonic
| x   Mute note
| b   Bend
| pb  Pre-bend
| br  Bend release
| pbr Pre-bend release
| brb Bend release bend

************************************
Добавлено: 20.07.2015
Вам также может быть интересно:
Другие материалы по этой песне:

Страница создана 20.07.2015
http://primanota.ru/satyajit-ray/feluda-theme-chords.htm
Привет, Гость.
Предлагаем пройти революционный курс по гитаре.
Подарок от PrimaNota.Ru, забирай!