PrimaNota.ru - самый крупный в мире бесплатный архив песенных текстов, аккордов, табулатур и нот


Saturnus - Call Of The Raven Moon - таба, видео

Регистрация Запомнить меня
Войти через:  Facebook Google Twitter Vk Yandex Mail.ru

Saturnus - Call Of The Raven Moon - таба, видео

Печатать
Просмотров: 173
---------------------------------------------------------------------------------
CALL OF THE RAVEN MOON - Saturnus
---------------------------------------------------------------------------------
Tab by: Wehmutshall

Section 1 (2x)
e|------------|------------------|-------------------------|--------------------|
B|------------|------------------|-------------------------|--------------------|
G|-0----------|-----0---2--------|-------------2-0---------|-2---0---------4----|
D|-2-----2----|-2-4---------4----|-2-5-4h5p4-2-----4---2---|-2---2-----2-4-4----|
A|-2-----3----|-2---3-------5----|-2---------------3-------|-0---------3---2----|
E|-0----------|------------------|-------------------------|-----0--------------|

Section 2 (4x)
e|---------3---|---------3---|---------3---|---------0---|
B|-----0-----0-|-----0-----0-|-----3-----3-|-----3-----3-|
G|---0---0-----|---0---0-----|---2---2-----|---0---0-----|
D|-2-----------|-2-----------|-0-----------|-------------|
A|-------------|-------------|-------------|-3-----------|
E|-------------|-------------|-------------|-------------|
            
e|---------0---|---------0---|-------------|-------------| 
B|-----3-----3-|-----3-----3-|-----1---0---|---0---------| 
G|---0---0-----|---0---0-----|---2---2---2-|-2---0-----0-| 
D|-------------|-------------|-0-----------|-2-----2-4---| 
A|-3-----------|-3-----------|-------------|-------------| 
E|-------------|-------------|-------------|-------------| 

Section 3 (2x)
e|------------|---------0---|---------0---|---------0---|-----------|
B|------------|-----3-----3-|-----3-----3-|-----3-----3-|---------0-|
G|---------0--|---2---2-----|---2---2-----|---2---2-----|---------4-|
D|-2---2---2--|-0-----------|-0-----------|-0-----------|-2---------|
A|-2---3---3--|-------------|-------------|-------------|-3---3-----|
E|-0-------3--|-------------|-------------|-------------|-0---------|

                                                 Bridge
e|-------------|-------------|-------------|    |-------------|
B|-------------|-------------|-------------|    |-------------|
G|---------0---|---------0---|---------0---|    |-----------0-|
D|-----2-----2-|-----2-----2-|-----2-----2-|    |-2---2---4---|
A|---2---2-----|---2---2-----|---2---2-----|    |-2---3---5---|
E|-0-----------|-0-----------|-0-----------|    |-0---3---5---|

Section 4 (2x)

Guitar 1
e|-----------|-----------|-------------|-------------|-------------|
B|-----------|-----------|-------------|-------------|-------------|
G|-0---------|-----------|-----0---2---|---------0---|---0-----2-0-|
D|---------4-|-2-------0-|-2-4---------|-4-----2---4-|-2---4-2-----|
A|-----------|-3---------|-------------|-------------|-------------|
E|-----------|-----------|-0-----------|-------------|-------------|

e|-------------|-------------|-------------|
B|---------3---|-------------|-------------|
G|---------2---|-0-----------|---------0---|
D|-4---2-------|-------2-2-4-|-4-----2---4-|
A|-------------|-------------|-2-----------|
E|-------------|-------------|-------------|

Guitar 2
e|-----------|-----------|-------------|-----------0-|-------------|
B|---0---0---|-----1-0-1-|---0---------|-3-------3---|---0---0---0-|
G|-----2-----|-----------|-----4-0-2---|---2---2-----|-----2-------|
D|-2-------4-|-2---------|-2---------2-|-----4-------|-2-----------|
A|-----------|-3---------|-------------|-------------|-------------|
E|-----------|-----------|-0-----------|-------------|-0-----------|

e|-------------|-------------|-------------|
B|---------3-1-|-0-----0-----|---------0---|
G|-------0-2---|-0---2---2-0-|-4---2-------|
D|-5-----------|-------------|-4-----2---4-|
A|-3-----------|-------------|-2-----------|
E|-----0-------|-------------|-------------|

Repeat Section 2, 3 and 4

Section 5 (2x)
e|-------------|---------5---|---------3---|-----0h2p0------|
B|---------3---|-----0-----0-|-----1-----1-|----------3-----|
G|-----0-----0-|---5---5-----|---4---4-----|---2--------2---|
D|---4---4-----|-------------|-2-----------|-0------------0-|
A|-3-----------|-0-----------|-------------|----------------|
E|-------------|-------------|-------------|----------------|

e|-------------|---------5-------|-8-------7---|-3-----3-0-2-|
B|---------3---|-----3-----3h5p3-|-----0-------|-------0-----|
G|-----0-----0-|---2---2---------|---5---5---0-|-----0-------|
D|---4---4-----|-0---------------|-------------|---2---------|
A|-3-----------|-----------------|-7-----------|-------------|
E|-------------|-----------------|-------------|-------------|

Section 6 (4x)
e|-------0-----|-------0-----|-------0-----|-------0-----|
B|-----7-----7-|-----7-----7-|-----7-----7-|-----7-----7-|
G|---9-----9---|---9-----9---|---9-----9---|---9-----9---|
D|-------------|-------------|-------------|-------------|
A|-------------|-------------|-------------|-------------|
E|-0-----------|-0-----------|-7-----------|-7-----------|

e|-------0-----|-------0-----|-------0-----|-------0-----|
B|-----7-----7-|-----7-----7-|-----7-----7-|-----7-----7-|
G|---9-----9---|---9-----9---|---9-----9---|---9-----9---|
D|-------------|-------------|-0-----------|-0-----------|
A|-------------|-------------|-------------|-------------|
E|-8-----------|-8-----------|-------------|-------------|
Добавлено: 10.11.2015
Другие материалы по этой песне:
  • Аккорды и текст

Страница создана 10.11.2015
http://primanota.ru/saturnus/call-of-raven-moon-chords.htm
Привет, Гость.
Предлагаем пройти революционный курс по гитаре.
Подарок от PrimaNota.Ru, забирай!