PrimaNota.ru - самый крупный в мире бесплатный архив песенных текстов, аккордов, табулатур и нот


Saturnus - All Alone - текст песни, таба, видео

Регистрация Запомнить меня
Войти через:  Facebook Google Twitter Vk Yandex Mail.ru

Saturnus - All Alone - текст песни, таба, видео

Печатать
Просмотров: 86
Уроки эстрадного вокала в Санкт-Петербурге
Авторы: Saturnus

----------------------------------------------------------------------------------------
                                  ALL ALONE - Saturnus
----------------------------------------------------------------------------------------
Tab by: Wehmutshall

Intro (transcribed from piano)
e|-3-------|------------|---------|------2-3-|-0-------|-------2--|-3-------|-5--------|
B|---------|------0-----|-1-------|-3--------|---------|----------|---------|----------|
G|---------|------------|---------|----------|---------|----------|---------|----------|
D|-2-------|------------|---------|-0--------|-2-------|----------|---------|-0--------|
A|-2-------|------------|-3-------|----------|---------|----------|-3-------|----------|
E|---------|------------|---------|----------|---------|----------|---------|----------|

e|-0-------|------3-----|---------|------2-3-|-0-------|-------2--|-3-------|-5--------|
B|---------|------------|-1-------|-3--------|---------|----------|---------|--------0-|
G|---------|------------|---------|----------|---------|----------|---------|------2---|
D|-2-------|------------|---------|-0--------|-2-------|----------|---------|-0--------|
A|---------|------------|-3-------|----------|---------|----------|-3-------|----------|
E|---------|------------|---------|----------|---------|----------|---------|----------|

Section 1

Guitar                                                                       4x
e|--------------------|--------------------|-----------------|-----------------|
B|----------8---------|----------8---------|---------5-------|---------7-------|
G|-----11-----11---11-|-----11-----11---11-|-----0-------0---|-----0-----0---0-|
D|---9----9------9----|---9----9------9----|---5---5---5---5-|---7---7-----7---|
A|-7------------------|-7------------------|-3---------------|-5---------------|
E|--------------------|--------------------|-----------------|-----------------|

Piano
e|----------12--------|---------12---10----|--------12-------|-10-----10---8---|
B|-12-----------------|-12-----------------|-13-----------13-|-----------------|
G|-----9---------9----|-----11-------------|----12------12---|-----------------|
D|--------------------|--------------------|-----------------|-----------------|
A|--------------------|--------------------|-----------------|-----------------|
E|--------------------|--------------------|-----------------|-----------------|


Section 2                                                              3x
e|---------5-------|---------5-------|---------8-------|---------7-------|
B|-----0-----0---0-|-----0-----0---0-|-----5-----5---5-|-----5-----5---5-|
G|---5---5-----5---|---5---5-----5---|---5---5-----5---|---7---7-----7---|
D|-3---------------|-3---------------|-7---------------|-5---------------|
A|-----------------|-----------------|-----------------|-----------------|
E|-----------------|-----------------|-----------------|-----------------|

e|---------5-------|---------5-------|---------4-----|-----------5---7-|
B|-----0-----0---0-|-----0-----0---0-|-----0-----0---|-----0-------0---|
G|---5---5-----5---|---5---5-----5---|---4---4-----4-|---4---4---------|
D|-3---------------|-3---------------|-2-------------| 2-------2-------|
A|-----------------|-----------------|---------------|-----------------|
E|-----------------|-----------------|---------------|---------------0-|

Section 3

Guitar                                                              
e|-----------------|-----------------|---------0-------|---------0-------|
B|---------0-------|---------0-------|-----3-----3---3-|-----3-----3---3-|
G|-----5-----5---5-|-----2-----2---2-|---2---2-----2---|---2---2-----2---|
D|---2---2-----2---|---0---0-----0---|-0---------------|-0---------------|
A|-0---------------|-----------------|-----------------|-----------------|
E|-----------------|-3---------------|-----------------|-----------------|

Piano
e|----5-7-8--|-5----5-7-8--|-7---------|------|----5-7-8--|-5----5-7-8--|-7----8-10-|
B|-----------|-------------|------8-10-|------|-----------|-------------|-----------|
G|-----------|-------------|-----------|------|-----------|-------------|-----------|
D|-----------|-------------|-----------|------|-----------|-------------|-----------|
A|-----------|-------------|-----------|------|-----------|-------------|-----------|
E|-----------|-------------|-----------|------|-----------|-------------|-----------|

Repeat Section 2

Section 4

Guitar/Mandolin                                              
e|-----12-10-------|-------12-10-------|-------10------------|--------------|
B|-----------13-12-|-10----------13-12-|------------10h12p10-|-----12-------|
G|-----------------|-------------------|-12------12----------|--------14----|
D|-----------------|-------------------|---------------------|--------------|
A|-----------------|-------------------|---------------------|--------------|
E|-----------------|-------------------|---------------------|--------------|

Guitar strumming
e|-0-------0------|-3--------3---3--|-2-------2-2-0-0-|--h2-2-0---------|
B|-1-----1-1-1-0--|-3--------3-3-3--|-3-------3-3-3-3-|---3-3-3---3-3-0-|
G|-2-----2-2-2-2--|-0--------0-0-0--|-2-------2-2-2-2-|---2-2-2---2-2-2-|
D|-2-----2-2-2-2--|-0--------0-0-0--|-0-------0-----0-|---0-0-----0-0---|
A|-0-----0-----0--|-2--------2-2-2--|-----------------|-----------------|
E|----------------|-3--------3---3--|-----------------|-----------------|

Piano (first 3 times it's the same as in Section 3)
e|-----------10-12-|----------10-12-10-|---------------10----|--------------|
B|--------13-------|-13----13----------|------------13-------|--------------|
G|-----------------|-------------------|---------------------|--------------|
D|-----------------|-------------------|---------------------|--------------|
A|-----------------|-------------------|---------------------|--------------|
E|-----------------|-------------------|---------------------|--------------|


Solo section

Heavy Guitar        P.M. 
e|--------------|--------------|-------------|-------------|
B|--------------|--------------|-------------|-------------|
G|--------------|--------------|-------------|-------------|
D|-3---------3--|---3-3--------|-7-----------|-5-----------|
A|-3---------3--|---3-3--------|-7-----------|-5-----------|
E|-1---------1--|---1-1--------|-5-----------|-3-----------|

Solo
e|------------------|-------------12-|--------12-|-12-----10----|
B|-12b--10--10--12b-|-10--10--12b----|-10--------|--------------|
G|------------------|----------------|-----------|--------------|
D|------------------|----------------|-----------|--------------|
A|------------------|----------------|-----------|--------------|
E|------------------|----------------|-----------|--------------|
                                                                2x
e|------------------|-------------12-|-----------|--------------||
B|-12b--10--10--12b-|-10--10--12b----|-10-----10-|-12-----13----||
G|------------------|----------------|-----------|--------------||
D|------------------|----------------|-----------|--------------||
A|------------------|----------------|-----------|--------------||
E|------------------|----------------|-----------|--------------||

e|---------------------|-------------------|-------------------------|
B|-12h13p12------12h13-|p12----------------|-----10/12/13\12---------|
G|----------14---------|----14-------------|-----------------14------|
D|---------------------|---------9h10p9----|--------------------9h10-|
A|---------------------|----------------12-|-12----------------------|
E|---------------------|-------------------|-------------------------|

e|---------------------------|-----------------12----|--15-----17-------17-|
B|------10/12/13-12-------12-|-13---12-13\10------10-|-----12-----15-15----|
G|------------------14-14----|-----------------------|---------------------|
D|p9-------------------------|-----------------------|---------------------|
A|---12----------------------|-----------------------|---------------------|
E|---------------------------|-----------------------|---------------------|

e|-------15-----------------------|---------------------------|-------|----------------|
B|-15p13----13-12v---13--12h13p12-|----12-12b--13--12-13---12-|-------|----------------|
G|--------------------------------|-14------------------14----|-14----|---4h5p4----5-7-|
D|--------------------------------|---------------------------|-------|---------7------|
A|--------------------------------|---------------------------|-------|----------------|
E|--------------------------------|---------------------------|-------|----------------|
   A.H.                                                          A.H.
e|-----------------|---------------|---------|------|------------------|---------------|
B|-----------------|---------0/1/3/|/10------|------|-10/13/----/15----|-12---12-------|
G|-7b----5-----4-5-|-4-------------|---------|------|------------------|---------12----|
D|---------7-------|---7-----------|---------|------|------------------|---------------|
A|-----------------|---------------|---------|------|------------------|---------------|
E|-----------------|---------------|---------|------|------------------|---------------|
                                                                      A.H.
e|--------|-----|--------|---------------|---------|----------------|-----------------|
B|-10-----|-----|-13-----|-12------------|-10------|----------------|-----------------|
G|--------|-----|--------|--------9------|---------|---4h5p4----5-7-|-7b----5-----4-5-|
D|--------|-----|--------|---------------|---------|---------7------|---------7-------|
A|--------|-----|--------|---------------|---------|----------------|-----------------|
E|--------|-----|--------|---------------|---------|----------------|-----------------|

e|-----------------|---------|
B|---------0/1/10/-|/13------|
G|-4---------------|---------|
D|---7-------------|---------|
A|-----------------|---------|
E|-----------------|---------|


Outro
e|-1---------------|-----1----------|-1------1-------|---1-1----------|-0-----------|
B|-1-------1-----1-|---1-1--------1-|-1------1-----1-|---1-1---1-1-0--|-1-----------|
G|-2---2-2-2---2-2-|---2-2----2-2-2-|-2------2-----2-|---2-2---2-2-0--|-2-----------|
D|-3---3-3-3---3-3-|---3-3----3-3-3-|-3------3---3-3-|---3-3---3-3-0--|-2-----------|
A|-3---3-3-3---3-3-|---3-3----3-3-3-|-3------3---3-3-|---3-3---3-3----|-0-----------|
E|-1-------1---1---|---1-1----1---1-|-1------1---1-1-|-----1---1------|-------------|
Добавлено: 26.06.2016
Другие материалы по этой песне:

Страница создана 01.05.2012
http://primanota.ru/saturnus/all-alone-chords.htm
Привет, Гость.
Предлагаем пройти революционный курс по гитаре.
Подарок от PrimaNota.Ru, забирай!