PrimaNota.ru - самый крупный в мире бесплатный архив песенных текстов, аккордов, табулатур и нот


Saturate - Soul Element - таба, видео

Регистрация Запомнить меня
Войти через:  Facebook Google Twitter Vk Yandex Mail.ru

Saturate - Soul Element - таба, видео

Печатать
Просмотров: 52
-------------------------------------------------------------------------------
                             Soul Element - Saturate
-------------------------------------------------------------------------------
Tabbed by: Chris Esp
E-mail: greekgamer17@yahoo.gr

Tuning: Drop B

e|--------------------------------------------------------------------|   |
B|--------------------------------------------------------------------|   |
G|------9-----9---9-----9-----9---9-----9-----9---9-----9-----9---9---|   |
D|----7-----7---------7-----7---------7-----7---------7-----7---------|   |
A|--------------------------------------------------------------------|   |
E|--0-----0-----0---0-----0-----0---8-----8-----8---8-----8-----8-----|   |
                                                                          |  x4
e|--------------------------------------------------------------------|   |
B|--------------------------------------------------------------------|   |
G|------9-----9---9-----9-----9---9------9-----9---9-----9-----9---9--|   |
D|----7-----7---------7-----7-----------------------------------------|   |
A|-------------------------------------5-----5---------7-----7--------|   |
E|--0-----0-----0---0-----0-----0----5-----5-----5---7-----7-----7----|   |

e|---------------------------------------------------------------------------------------|
B|---------------------------------------------------------------------------------------|
G|-----------9--9--9--9-----------9--9--9--9-----------9--9--9--9-----------9--9--9--9---|
D|--0-0-0-0--x--x--x--x-----------x--x--x--x--8-8-8-8--x--x--x--x-----------x--x--x--x---|
A|--0-0-0-0-(7)(7)(7)(7)---------(7)(7)(7)(7)-8-8-8-8-(7)(7)(7)(7)---------(7)(7)(7)(7)--|
E|--0-0-0-0--------------000-0-0--------------8-8-8-8--------------888-8-8---------------|

e|---------------------------------------------------------------------------------------|
B|---------------------------------------------------------------------------------------|
G|-----------9--9--9--9-----------9--9--9--9-----------9--9--9--9-----------9--9--9--9---|
D|--0-0-0-0--x--x--x--x-----------x--x--x--x--5-5-5-5--x--x--x--x--7-7-7-7--x--x--x--x---|
A|--0-0-0-0-(7)(7)(7)(7)---------(7)(7)(7)(7)-5-5-5-5-(7)(7)(7)(7)-7-7-7-7-(7)(7)(7)(7)--|
E|--0-0-0-0--------------000-0-0--------------5-5-5-5--------------7-7-7-7---------------|

e|-----------------------------------------------------------|
B|-----------------------------------------------------------|
G|---------------------------101010101010101010-7--9-9-9-9---|
D|--0-0-x--0--0--0--0-0-0-0---8-8-8-8-8-8-8-8-8-5--7-7-7-7---|  x4
A|--0-0-x--0--0--0--0-0-0-0---8-8-8-8-8-8-8-8-8-5--7-7-7-7---|
E|--0-0-x--0--0--0--0-0-0-0---8-8-8-8-8-8-8-8-8-5--7-7-7-7---|

e|--------------------------------------------------------------------|   |
B|--------------------------------------------------------------------|   |
G|------9-----9---9-----9-----9---9-----9-----9---9-----9-----9---9---|   |
D|----7-----7---------7-----7---------7-----7---------7-----7---------|   |
A|--------------------------------------------------------------------|   |
E|--0-----0-----0---0-----0-----0---8-----8-----8---8-----8-----8-----|   |
                                                                          |  x2
e|--------------------------------------------------------------------|   |
B|--------------------------------------------------------------------|   |
G|------9-----9---9-----9-----9---9------9-----9---9-----9-----9---9--|   |
D|----7-----7---------7-----7-----------------------------------------|   |
A|-------------------------------------5-----5---------7-----7--------|   |
E|--0-----0-----0---0-----0-----0----5-----5-----5---7-----7-----7----|   | 

e|----------------------------------------------------------------------|    |
B|----------------------------------------------------------------------|    |
G|----------------------------------------------------------------------|    |
D|--7-7-7-7-7-7-7-7-7-7-10p7-8p7-8p7--7-7-7-7-7-7-7-7-7-7-8p7-8p7-8p7---|    |
A|----------------------------------------------------------------------|    |
E|----------------------------------------------------------------------|    |
                                                                             |   palm mute 
e|------------------------------------|                                      |
B|------------------------------------|                                      |
G|------------------------------------|                                      |
D|--7-7-7-7-7-7-7-7-7-7-7-7-7-7-7-7---|                                      |
A|------------------------------------|                                      |
E|------------------------------------|                                      |

e|--------------|
B|--------------|
G|--------------|
D|--5~--10--7---|   no palm mute
A|--------------|
E|--------------|

e|---------------------------------------------------------------------------------------|
B|---------------------------------------------------------------------------------------|
G|-----------9--9--9--9-----------9--9--9--9-----------9--9--9--9-----------9--9--9--9---|
D|--0-0-0-0--x--x--x--x-----------x--x--x--x--8-8-8-8--x--x--x--x-----------x--x--x--x---|
A|--0-0-0-0-(7)(7)(7)(7)---------(7)(7)(7)(7)-8-8-8-8-(7)(7)(7)(7)---------(7)(7)(7)(7)--|
E|--0-0-0-0--------------000-0-0--------------8-8-8-8--------------888-8-8---------------|

e|---------------------------------------------------------------------------------------|
B|---------------------------------------------------------------------------------------|
G|-----------9--9--9--9-----------9--9--9--9-----------9--9--9--9-----------9--9--9--9---|
D|--0-0-0-0--x--x--x--x-----------x--x--x--x--5-5-5-5--x--x--x--x--7-7-7-7--x--x--x--x---|
A|--0-0-0-0-(7)(7)(7)(7)---------(7)(7)(7)(7)-5-5-5-5-(7)(7)(7)(7)-7-7-7-7-(7)(7)(7)(7)--|
E|--0-0-0-0--------------000-0-0--------------5-5-5-5--------------7-7-7-7---------------|

e|-----------------------------------------------------------|
B|-----------------------------------------------------------|
G|---------------------------101010101010101010-7--9-9-9-9---|
D|--0-0-x--0--0--0--0-0-0-0---8-8-8-8-8-8-8-8-8-5--7-7-7-7---|  x4
A|--0-0-x--0--0--0--0-0-0-0---8-8-8-8-8-8-8-8-8-5--7-7-7-7---|
E|--0-0-x--0--0--0--0-0-0-0---8-8-8-8-8-8-8-8-8-5--7-7-7-7---|


e|-------------------------------------------------------------------------|
B|-------------------------------------------------------------------------|
G|----9---9---9---9---9--10-10-10-10-10-10-10-10-10-10-10-10-10-10-10-10---|
D|----x---x---x---x---x---8--8--8--8--8--8--8--8--8--8--8--8--8--8--8--8---|  x4
A|----7---7---7---7---7---8--8--8--8--8--8--8--8--8--8--8--8--8--8--8--8---|
E|--0---0---0---0---0-----8--8--8--8--8--8--8--8--8--8--8--8--8--8--8--8---|

e|--------------------------------------------------------------------|   |
B|--------------------------------------------------------------------|   |
G|------9-----9---9-----9-----9---9-----9-----9---9-----9-----9---9---|   |
D|----7-----7---------7-----7---------7-----7---------7-----7---------|   |
A|--------------------------------------------------------------------|   |
E|--0-----0-----0---0-----0-----0---8-----8-----8---8-----8-----8-----|   |
                                                                          |  x2
e|--------------------------------------------------------------------|   |
B|--------------------------------------------------------------------|   |
G|------9-----9---9-----9-----9---9------9-----9---9-----9-----9---9--|   |
D|----7-----7---------7-----7-----------------------------------------|   |
A|-------------------------------------5-----5---------7-----7--------|   |
E|--0-----0-----0---0-----0-----0----5-----5-----5---7-----7-----7----|   |

e|-----------------------------------------------------------|
B|-----------------------------------------------------------|
G|---------------------------101010101010101010-7--9-9-9-9---|
D|--0-0-x--0--0--0--0-0-0-0---8-8-8-8-8-8-8-8-8-5--7-7-7-7---|  x4
A|--0-0-x--0--0--0--0-0-0-0---8-8-8-8-8-8-8-8-8-5--7-7-7-7---|
E|--0-0-x--0--0--0--0-0-0-0---8-8-8-8-8-8-8-8-8-5--7-7-7-7---|

e|-------------------------------------------------------------------------|
B|-------------------------------------------------------------------------|
G|----9---9---9---9---9--10-10-10-10-10-10-10-10-10-10-10-10-10-10-10-10---|
D|----x---x---x---x---x---8--8--8--8--8--8--8--8--8--8--8--8--8--8--8--8---|  x3
A|----7---7---7---7---7---8--8--8--8--8--8--8--8--8--8--8--8--8--8--8--8---|
E|--0---0---0---0---0-----8--8--8--8--8--8--8--8--8--8--8--8--8--8--8--8---|

e|-------------------------------------------------------------------|
B|-------------------------------------------------------------------|
G|----9---9---9---9---9--10-10-10-10-10-10-10-10-7-7-7-7-9--12-------|
D|----x---x---x---x---x---8--8--8--8--8--8--8--8-5-5-5-5-7--10--0~---|  
A|----7---7---7---7---7---8--8--8--8--8--8--8--8-5-5-5-5-7--10--0~---|
E|--0---0---0---0---0-----8--8--8--8--8--8--8--8-5-5-5-5-7--10--0~---|
 
It's not perfect but it's worth trying!


************************************

| /   slide up
| \   slide down
| h   hammer-on
| p   pull-off
| ~   vibrato
| +   harmonic
| x   Mute note
| b   Bend
| pb  Pre-bend
| br  Bend release
| pbr Pre-bend release
| brb Bend release bend

************************************
Добавлено: 23.05.2016
Другие материалы по этой песне:
  • Аккорды и текст

Страница создана 23.05.2016
http://primanota.ru/saturate/soul-element-chords.htm
Привет, Гость.
Предлагаем пройти революционный курс по гитаре.
Подарок от PrimaNota.Ru, забирай!