PrimaNota.ru - самый крупный в мире бесплатный архив песенных текстов, аккордов, табулатур и нот


Satellite - Ring The Bells - таба, видео

Регистрация Запомнить меня
Войти через:  Facebook Google Twitter Vk Yandex Mail.ru

Satellite - Ring The Bells - таба, видео

Печатать
Просмотров: 122
-------------------------------------------------------------------------------
                   RING THE BELLS – SATELLITE
-------------------------------------------------------------------------------
This song is so incredible! It kind of saved my life :P ... Please tell me if I made a 
mistake anywhere because this is my very first tab and its by ear so... yeah. Rate it!
"Sometimes the best in all of us can still break down and still give up on love, but 
it's never gone." JESUS LOVES YOU!!! DON'T GIVE UP!!!! TWLOHA

Tuning: Standard (EADGBe)

INTRO x2
e|---------------------------------------------------------------------------|
B|---------------------------------------------------------------------------|
G|---6---6---6---6---9---9---9---9-------------------------------------------|
D|---------------------------------------------------------------------------|
A|---------------------------------------------------------------------------|
E|-5---5---5---5---9---9---9---9---------------------------------------------|
VERSE
e|--------------------------------------------------------------------------|
B|--------------------------------------------------------------------------|
G|---6---6---6---6---9---9---9---9------------------------------------------|
D|-------------------------------------x4-----------------------------------|
A|--------------------------------------------------------------------------|
E|-5---5---5---5---9---9---9---9--------------------------------------------|

e|---------------------------------------------------------------------------|
B|---------------------------------------------------------------------------|
G|----11---11---11---11---11---11---11---11---11---11------------------------|
D|---------------------------------------------------------------------------|
A|---------------------------------------------------------------------------|
E|-10---10---10---10---10---10---10---10---10---10---------------------------|

e|---------------------------------------------------------------------------|
B|---------------------------------------------------------------------------|
G|---9---9----11---11---11---11---7---7---7---7------------------------------|
D|---------------------------------------------------------------------------|
A|---------------------------------------------------------------------------|
E|-9---9---10---10---10---10---7---7---7---7---------------------------------|

e|--------------------------------------------------------------------------|
B|--------------------------------------------------------------------------|
G|---6---6---6---6---9---9---9---9------------------------------------------|
D|-------------------------------------x4-----------------------------------|
A|--------------------------------------------------------------------------|
E|-5---5---5---5---9---9---9---9--------------------------------------------|

e|---------------------------------------------------------------------------|
B|---------------------------------------------------------------------------|
G|----11---11---11---11---11---11---11---11---11---11------------------------|
D|---------------------------------------------------------------------------|
A|---------------------------------------------------------------------------|
E|-10---10---10---10---10---10---10---10---10---10---------------------------|

e|---------------------------------------------------------------------------|
B|---------------------------------------------------------------------------|
G|---9---9----11---11---11---11---7---7---7---7------------------------------|
D|---------------------------------------------------------------------------|
A|---------------------------------------------------------------------------|
E|-9---9---10---10---10---10---7---7---7---7---------------------------------|


CHORUS
e|-----------------------------------------------------------------------------|
B|-----------------------------------------------------------------------------|
G|---11---11---11---11---13---13---13---13---9---9---9---9---11---11---11---11-|
D|-----------------------------------------------------------------------------|   x3
A|-----------------------------------------------------------------------------|
E|-10---10---10---10---12---12---12---12---9---9---9---9---10---10---10---10---|
(…at least we live tonight…)
e|--------------------------------------------------------------------------------|
B|--------------------------------------------------------------------------------|
G|---11--11---11---11---13---13---13---13---14---14---14---14---13---13---13---13-|
D|--------------------------------------------------------------------------------|
A|--------------------------------------------------------------------------------|
E|-10---10---10---10---12---12---12---12---14---14---14---14---12---12---12---12--|
(…at least we live tonight…)
e|---------------------------------------------------------------------------|
B|---------------------------------------------------------------------------|
G|---11----11---11---11---9---9---7---7--------------------------------------|
D|---------------------------------------------------------------------------|
A|---------------------------------------------------------------------------|
E|-10---10---10---10---9---9---7---7-----------------------------------------|

Repeat INTRO

2nd VERSE: same as first.
e|--------------------------------------------------------------------------|
B|--------------------------------------------------------------------------|
G|---6---6---6---6---9---9---9---9------------------------------------------|
D|-------------------------------------x4-----------------------------------|
A|--------------------------------------------------------------------------|
E|-5---5---5---5---9---9---9---9--------------------------------------------|

e|---------------------------------------------------------------------------|
B|---------------------------------------------------------------------------|
G|----11---11---11---11---11---11---11---11---11---11------------------------|
D|---------------------------------------------------------------------------|
A|---------------------------------------------------------------------------|
E|-10---10---10---10---10---10---10---10---10---10---------------------------|

e|---------------------------------------------------------------------------|
B|---------------------------------------------------------------------------|
G|---9---9----11---11---11---11---7---7---7---7------------------------------|
D|---------------------------------------------------------------------------|
A|---------------------------------------------------------------------------|
E|-9---9---10---10---10---10---7---7---7---7---------------------------------|

e|--------------------------------------------------------------------------|
B|--------------------------------------------------------------------------|
G|---6---6---6---6---9---9---9---9------------------------------------------|
D|-------------------------------------x4-----------------------------------|
A|--------------------------------------------------------------------------|
E|-5---5---5---5---9---9---9---9--------------------------------------------|



e|---------------------------------------------------------------------------|
B|---------------------------------------------------------------------------|
G|----11---11---11---11---11---11---11---11---11---11------------------------|
D|---------------------------------------------------------------------------|
A|---------------------------------------------------------------------------|
E|-10---10---10---10---10---10---10---10---10---10---------------------------|

e|---------------------------------------------------------------------------|
B|---------------------------------------------------------------------------|
G|---9---9----11---11---11---11---7---7---7---7------------------------------|
D|---------------------------------------------------------------------------|
A|---------------------------------------------------------------------------|
E|-9---9---10---10---10---10---7---7---7---7---------------------------------|


2nd CHORUS: same as first.
e|--------------------------------------------------------------------------------|
B|--------------------------------------------------------------------------------|
G|---11---11---11---11---13---13---13---13---9---9---9---9---11---11---11---11----|
D|--------------------------------------------------------------------------------|   x3
A|--------------------------------------------------------------------------------|
E|-10---10---10---10---12---12---12---12---9---9---9---9---10---10---10---10------|
(…at least we live tonight…)
e|--------------------------------------------------------------------------------|
B|--------------------------------------------------------------------------------|
G|---11--11---11---11---13---13---13---13---14---14---14---14---13---13---13---13-|
D|--------------------------------------------------------------------------------|
A|--------------------------------------------------------------------------------|
E|-10---10---10---10---12---12---12---12---14---14---14---14---12---12---12---12--|
(…at least we live tonight…)
e|---------------------------------------------------------------------------|
B|---------------------------------------------------------------------------|
G|---11----11---11---11---9---9---7---7--------------------------------------|
D|---------------------------------------------------------------------------|
A|---------------------------------------------------------------------------|
E|-10---10---10---10---9---9---7---7-----------------------------------------|

Then:
e|---------------------------------------------------------------------------|
B|---------------------------------------------------------------------------|
G|---6---6---6---6-----------------------------------------------------------|
D|---------------------------------------------------------------------------|
A|---------------------------------------------------------------------------|
E|-5---5---5---5-------------------------------------------------------------|

BRIDGE
(…the day you finally turn to dust…)
e|---------------------------------------------------------------------------|
B|---------------------------------------------------------------------------|
G|---12---12---12---12---11---11---11---11---7---7---7---7---6---6---6---6---|
D|---------------------------------------------------------------------------|
A|---------------------------------------------------------------------------|
E|-12---12---12---12---10---10---10---10---7---7---7---7---5---5---5---5-----|



 (…Brings colors that will never fade away…)
e|---------------------------------------------------------------------------|
B|---------------------------------------------------------------------------|
G|---12---12---12---12---11---11---11---11---6---6---6---6-------------------|
D|---------------------------------------------------------------------------|
A|---------------------------------------------------------------------------|
E|-12---12---12---12---10---10---10---10---5---5---5---5---------------------|

(…sometimes the best in all of us…)
e|------------------------------------------------------------------------------|
B|------------------------------------------------------------------------------|
G|---12---12---12---12---11---11---11---11---10---10---10----10---9---9---9---9-|
D|------------------------------------------------------------------------------|
A|------------------------------------------------------------------------------|
E|-12---12---12--12---10---10---10---10---10---10---10---10---9---9---9---9-----|

e|---------------------------------------------------------------------------|
B|---------------------------------------------------------------------------|
G|---7---7---7---7---7---7---7---7---7---7---7---7---7---7---7---7-----------|
D|---------------------------------------------------------------------------|
A|---------------------------------------------------------------------------|
E|-7---7---7---7---7---7---7---7---6---6---6---6---6---6---6---6-------------|

e|---------------------------------------------------------------------------|
B|---------------------------------------------------------------------------|
G|---6---6---6---6---9---9---9---9-------------------------------------------|
D|----------------------------------------x4---------------------------------|
A|---------------------------------------------------------------------------|
E|-5---5---5---5---9---9---9---9---------------------------------------------|



CHORUS
e|--------------------------------------------------------------------------------|
B|--------------------------------------------------------------------------------|
G|---11---11---11---11---13---13---13---13---9---9---9---9---11---11---11---11----|
D|--------------------------------------------------------------------------------|   x3
A|--------------------------------------------------------------------------------|
E|-10---10---10---10---12---12---12---12---9---9---9---9---10---10---10---10------|
(…at least we live tonight…)
e|--------------------------------------------------------------------------------|
B|--------------------------------------------------------------------------------|
G|---11--11---11---11---13---13---13---13---14---14---14---14---13---13---13---13-|
D|--------------------------------------------------------------------------------|
A|--------------------------------------------------------------------------------|
E|-10---10---10---10---12---12---12---12---14---14---14---14---12---12---12---12--|
(…at least we live tonight…)
e|---------------------------------------------------------------------------|
B|---------------------------------------------------------------------------|
G|---11----11---11---11---9---9---7---7---6~---------------------------------|
D|---------------------------------------------------------------------------|
A|---------------------------------------------------------------------------|
E|-10---10---10---10---9---9---7---7------5~---------------------------------|

**LYRICS**

Find the words that make it right again
Calling birds help you make it through the night
It's just enough to find a way to open up once again
And learn to take all the beauty that's inside

Well ring the bells that lead you home
Cause the only truth I've ever known
Is that nothing ever hurts us more than love
So circle up your best friends
And we'll celebrate the way it ends
At least we live tonight
At least we live tonight

Scream out loud
Until you feel again
And hear the sound of how to heal an aching heart
And those that know you most
Can help you to live again
So keep the close
As you're making your new start

Well ring the bells that lead you home
Cause the only truth I've ever known
Is that nothing ever hurts us more than love
So circle up your best friends
And we'll celebrate the way it ends
At least we live tonight
At least we live tonight

The day you finally turn to dust
And finally hear your name
Brings colors that will never fade away
Sometimes the best in all of us
Can still break down and still give up on love
But it's never gone

Well ring the bells that lead you home
Cause the only truth I've ever known
Is that nothing ever hurts us more than love
So circle up your best friends
And we'll celebrate the way it ends
At least we live tonight
At least we live tonight





************************************

| /   slide up
| \   slide down
| h   hammer-on
| p   pull-off
| ~   vibrato
| +   harmonic
| x   Mute note
| b   Bend
| pb  Pre-bend
| br  Bend release
| pbr Pre-bend release
| brb Bend release bend

************************************
Добавлено: 01.05.2012
Другие материалы по этой песне:
  • Аккорды и текст

Страница создана 01.05.2012
http://primanota.ru/satellite/ring-the-bells-chords.htm
Привет, Гость.
Предлагаем пройти революционный курс по гитаре.
Подарок от PrimaNota.Ru, забирай!