PrimaNota.ru - самый крупный в мире бесплатный архив песенных текстов, аккордов, табулатур и нот


Satanic Warmaster - Eaten By Rats - текст песни, таба, видео

Регистрация Запомнить меня
Войти через:  Facebook Google Twitter Vk Yandex Mail.ru

Satanic Warmaster - Eaten By Rats - текст песни, таба, видео

Печатать
Просмотров: 149
Satanic Warmaster - Eaten By Rats


My second tab. Comments are welcome.

Tuning: Standard


Riff 1a Intro 2x
e|-------------------------------------------------------------------|
B|---------------------------------------------------------5---------|
G|--------5555555---------------------------------------5--------6---|
D|-222222-2222222-5555555555555-------------------------------5------|
A|-000000---------3333333333333-55555555-22222222---3----------------|
E|------------------------------33333333-00000000---------3----------|



Riff 1b 4x
e|-------------------------------------------------------------------|
B|-------------------------------------------------------------------|
G|--------5555555----------------------------------------------------|
D|-222222-2222222-5555555555555-------------------55555555-----------|
A|-000000---------3333333333333-55555555-22222222-33333333-55555555--|
E|------------------------------33333333-00000000----------33333333--|



Riff 2 Verse 2x  Not so sure about those last notes, but it's close.
e|--------------------------------------------------------------|
B|--------------------------------------------------------------|
G|--------------------------------------------------------------|
D|---------------------------------------------------5555-------|
A|-7777777-222222-555555-333333-777777-222222-555555-3333-5555--|
E|-5555555-000000-333333-111111-555555-000000-333333------3333--|

End riff 2 with this the second time. 
e|-----------------|
B|--------5--------|
G|-----5--------6--|
D|-----------5-----|
A|-3---------------|
E|-------3---------|1x



Riff 1b 4x
e|-------------------------------------------------------------------|
B|-------------------------------------------------------------------|
G|--------5555555----------------------------------------------------|
D|-222222-2222222-5555555555555-------------------55555555-----------|
A|-000000---------3333333333333-55555555-22222222-33333333-55555555--|
E|------------------------------33333333-00000000----------33333333--|



Riff 2 Verse 2x
e|---------------------------------------------------------------|
B|---------------------------------------------------------------|
G|---------------------------------------------------------------|
D|---------------------------------------------------5555--------|
A|-7777777-222222-555555-333333-777777-222222-555555-3333--5555--|
E|-5555555-000000-333333-111111-555555-000000-333333-------3333--|



Chorus 4x 
e|--------------------------------------------|
B|--------------------------------------------|
G|--------------------------------------------|
D|--55555-77777-77777-99999--9999999999-------|
A|--33333-------55555--------7777777777-------|
E|--------------------------------------------|

e|------------------------------------|
B|------------------------------------|
G|--44444444-55554444-22222222222222--|
D|--55555555-55555555-00000000000000--|
A|------------------------------------|
E|------------------------------------|


Repeat:

Intro riff 1a 2x & riff 1b 4x

Verse 4x

Chorus 4x


End song with this
e|----------|
B|----------|
G|----------|
D|-5--7--9--|
A|-3--5--7--|
E|----------|

Добавлено: 21.05.2012
Другие материалы по этой песне:

Страница создана 06.05.2012
http://primanota.ru/satanic-warmaster/eaten-by-rats-chords.htm
Привет, Гость.
Предлагаем пройти революционный курс по гитаре.
Подарок от PrimaNota.Ru, забирай!