PrimaNota.ru - самый крупный в мире бесплатный архив песенных текстов, аккордов, табулатур и нот


Saskwatch - Dont Wanna Try - аккорды и текст, видео

Регистрация Запомнить меня
Войти через:  Facebook Google Twitter Vk Yandex Mail.ru

Saskwatch - Dont Wanna Try - аккорды и текст, видео

Печатать
Просмотров: 175
Dont Wanna Try
Saskwatch
-------------------------------------------------------------------------------
                          DON'T WANNA TRY - Saskwatch
-------------------------------------------------------------------------------
Tabbed by:ndermawan
E-mail:ndermawan@yahoo.com

Tuning: Standard

Super awesome Melburnian/Aussie soul/funk band! 
Don't know how they aren't more popular cause their music is the bee's knees.

Links:
------
Soundcloud ref.         :https://soundcloud.com/saskwatchmusic/02-dont-wanna-try
Official Website        :http://www.saskwatch.com.au/
Facebook                :https://www.facebook.com/saskwatchmusic
Triple J Unearthed      :https://www.triplejunearthed.com/artist/saskwatch


Chords used - both normal or add7 inversions are fine
-----------
   
    D#  Fm7  Cm  Gm7 G#7M   F#m7
e|--6---8----8---10--x------9---------------------------------------------|
B|--8---9----8---11--13-----10--------------------------------------------|
G|--8---8----8---10--12-----9---------------------------------------------|
D|--8---10---10--12--13-----11--------------------------------------------|
A|--6---8----10--10--11-----9---------------------------------------------|
E|-----------8-------X----------------------------------------------------|


Intro:
------

Lead Guitar Pt.1:
e|--------6-----------------8-----------8----------------10---8--8--8--------|
B|--------8-----------------9-----------8----------------11---9--9--9--------|
G|--------8-----------------8-----------8----------------10---8--8--8--------|
D|--------8--8h10-8---------10----------8--8h10-8--------12---10-10-10-------|
A|----6------------10-9-8---8----------10---------8-9-10-10---8--8--8--------|
E|--6------------------------------6-8---------------------------------------| X3

Piano: Comes in on 2nd playthrough during into - high notes to emulate piano
      D#                    Fm          Cm               Gm      Fm
e|----6---------------------8-----------8----------------10------8-----------|
B|----8---------------------9-----------8----------------11------9-----------|
G|----8---------------------8-----------8----------------10-X4---8-X4--------|
D|------X8--------------------X8----------X8---------------------------------|
A|---------------------------------------------------------------------------|
E|---------------------------------------------------------------------------|
Trumpet: Comes in on 2nd playthrough during into
e|----------------------------|----------------------------------------------|
B|----------------------------|----------------------------------------------|
G|--12-10-12-10---------------|--12-10-12-10---------------------------------|
D|--------------13-10-13--10--|--------------13-10-13------------------------|
A|----------------------------|----------------------------------------------|
E|----------------------------|----------------------------------------------|


Verse 1: Lead Pt.1, No piano
--------
D#                  Fm7                
     Another day in love with you
Cm7                        Gm7     Fm7
     Don't you know it's a drag
D#                         Fm7
     And I guess that it's hard for you
Cm7                          Gm7   Fm7
     To give up all that you had


Pre-chorus:
-----------
Gm7                 Gm7
     Don't you know, I still think about you
G#7M     Gm7   Fm7   F#m7
Each and every day
Gm7                 Gm7    
     But I'm tired of being alone without you
G#7M                        G#7M   Gm7 Fm7
So boy, what's it going to take?


Pre-chorus Lead Guitar:

e|--13--10---/10-----13--10---/10--------------------------------------------|
B|--11-------/11-----11-------/11-----13--13--11--11--9---------10-----------|
G|--10-------/10-----10-------/10-----12--12--10--10--8---------9------------|
D|--12-------/12-----12-------/12-----13--13--12--12--10--------11-----------|
A|--10-------/10-----10-------/10-----11--11--10--10--8---------9------------|
E|---------------------------------------------------------------------------|

e|--13--10---/10-----13--10---/10--------------------------------------------|
B|--11-------/11-----11-------/11-----13--13--13--13--13-13-11-11-10-10------|
G|--10-------/10-----10-------/10-----12--12--12--12--12-12-10-10-9--9-------|
D|--12-------/12-----12-------/12-----13--13--13--13--13-13-12-12-11-11------|
A|--10-------/10-----10-------/10-----11--11--11--11--11-11-10-10-9--9------6| Straight into
E|----------------------------------------------------------------------6-8--| Chorus


Chorus: Lead Pt.1, Piano, Trumpets
-------
D#                     Fm7      
     I've given all my love to you
Cm7                    Gm7       Fm7
     But I don't wanna try so hard no more
D#                     Fm7   
     I've given all my love to you
Cm7                    Gm7       Fm7
     But I don't wanna try so hard no more


Post Chorus Trumpets/Guitar: D# Fm7 Cm Gm Fm7                          Finish this way
                                                                       on the 2nd time
e|-------------------------------------------------------------------|--------------------|
B|-------------------------------------------------------------------|--------------------|
G|-------------------------------------------------------------------|-----------------8--|
D|--10--8--10-8---------------------------------------8/10--8--------|--8/10--8------8----|
A|--------------10-6-8--6--6h8-6h8-8-10-6-----6---6-8----------10-6--|-----------10-------|
E|-----------------------------------------8----8--------------------|--------------------|X2



Verse 2: Lead Pt.1 + Piano + trumpets
--------
D#                      Fm7  
     Boy, you've had me feeling this way
Cm7          Gm7     Fm7
     For so long
D#                      Fm7  
     But I can't help feeling right
Cm7                  Gm7     Fm7
     Even if it's so wrong

Pre-chorus:
-----------
Gm7                 Gm7
     Don't you know, I still think about you
G#7M     Gm7   Fm7   F#m7
Each and every day
Gm7                 Gm7    
     But I'm tired of being alone without you
G#7M                        G#7M   Gm7 Fm7
So boy, what's it going to take?


Chorus: Lead Pt.1, Piano, Trumpets
-------
D#                     Fm7      
     I've given all my love to you
Cm7                    Gm7       Fm7
     But I don't wanna try so hard no more
D#                     Fm7   
     I've given all my love to you
Cm7                    Gm7       Fm7
     But I don't wanna try so hard no more



Outro/ending: Same chords + Post chorus trumpets/guitar
-------------
D# Fm7 Cm7 Gm7 Fm7

Oh, I've given you all my love
But I don't wanna try so hard no more
Oh, I've given you all my love
But I don't wanna try

I don't wanna try
I don't wanna try
I don't wanna try so hard no more
Oh I give I give you all my love
Oh I don't wanna try so hard no more

End like:
e|---------------------------------------------------------------------------|
B|-----------------------------------------------------------------9-\-8-----|
G|-----------------------------------------------------------------8-\-7-----|
D|--10--8--10-8---------------------------------------8/10--8------9-\-8-----|
A|--------------10-6-8--6--6h8-6h8-8-10-6-----6---6-8----------10--8-\-6-----|
E|-----------------------------------------8----8----------------------------|

Its really quite hard to sing the vocal melody whilst playing chords, 
due to the off-beat delivery and frequent ad-lib/improvs.

Hope the tab helped!



End.

************************************

| /   slide up
| \   slide down
| h   hammer-on
| p   pull-off
| ~   vibrato
| +   harmonic
| x   Mute note
| b   Bend
| pb  Pre-bend
| br  Bend release
| pbr Pre-bend release
| brb Bend release bend

************************************
Добавлено: 22.04.2015
Вам также может быть интересно:
Другие материалы по этой песне:
  • Аккорды и текст

Страница создана 22.04.2015
http://primanota.ru/saskwatch/dont-wanna-try-chords.htm
Привет, Гость.
Предлагаем пройти революционный курс по гитаре.
Подарок от PrimaNota.Ru, забирай!