PrimaNota.ru - самый крупный в мире бесплатный архив песенных текстов, аккордов, табулатур и нот


Saron Gas - Driven Under - аккорды и текст, видео

Регистрация Запомнить меня
Войти через:  Facebook Google Twitter Vk Yandex Mail.ru

Saron Gas - Driven Under - аккорды и текст, видео

Печатать
Просмотров: 91
Driven Under
Saron Gas
Song: "Driven under" - (extract from the debut album "Fragile")
Band: Saron Gas
Tabbed By: Alex G

A cool song from Saron Gas ! 


Grab your guitar and jam. 


Standard tuning:
---------------- 

EADGBe 


Chords :
--------

F   

Intro - Verse : (Main Theme)
--------------
   
Electroacoustic guitar with slight fuzz
   
   C ya think I'm faking  when I'm lying next to ya...  

    F     F  
e|--1--0--1--------------------------------------------------
b|--1--0--1--------------------------------------------------
g|--2--2--2--------------------------------------------------
d|--3--2--3-------------------------------------------------- and so on
a|--3--0--3-------------------------------------------------
E|--1-----1----------------------------------------------


Enjoy !   

     
Добавлено: 15.10.2013
Другие материалы по этой песне:
  • Аккорды и текст

Страница создана 15.10.2013
http://primanota.ru/saron-gas/driven-under-chords.htm
Привет, Гость.
Предлагаем пройти революционный курс по гитаре.
Подарок от PrimaNota.Ru, забирай!