PrimaNota.ru - самый крупный в мире бесплатный архив песенных текстов, аккордов, табулатур и нот


Sarlo Akrobata - Ona Se Budi - бас-таба, видео

Регистрация Запомнить меня
Войти через:  Facebook Google Twitter Vk Yandex Mail.ru

Sarlo Akrobata - Ona Se Budi - бас-таба, видео

Печатать
Просмотров: 107
G|--------------------------------------------------------|
D|--------------------------------------------------------|
A|-----------------0--2--------------2--5--------2--5-----|
E|--0-----0--2--3-----------5--3--5--------5--5--------3--| x2

G|--------7--8--9-----------------------------------------|
D|---------------------4----7--9--7----7--9--7--5--7--5---|
A|--------------------------------------------------------|
E|--0---------------2-------------------------------------| x3

G|--------7--8--9----------------------9--7-----7--8--------|
D|---------------------4----7--9--7----------9--------7--9--|
A|----------------------------------------------------------|
E|--0---------------2---------------------------------------| x1

G|--------------------------------------------------------|
D|--------------------------------------------------------|
A|-----------------0--2--------------2--5--------2--5-----|
E|--0-----0--2--3-----------5--3--5--------5--5--------3--| x2

G|--------7--8--9-----------------------------------------|
D|---------------------4----7--9--7----7--9--7--5--7--5---|
A|--------------------------------------------------------|
E|--0---------------2-------------------------------------| x3

G|--------7--8--9----------------------9--7-----7--8--------|
D|---------------------4----7--9--7----------9--------7--9--|
A|----------------------------------------------------------|
E|--0---------------2---------------------------------------| x1

G|--------------------------------------------------------|
D|--------------------------------------------------------|
A|-----------------0--2--------------2--5--------2--5-----|
E|--0-----0--2--3-----------5--3--5--------5--5--------3--| x2


G|--------7--8--x--9--------------------------------------7--9/11-------|
D|---------------------7--8--x--9---5--6--x--7---5--7/9-----------------|
A|-/7-------------------------------------------------------------------|
E|----------------------------------------------------------------------| x3

G|--------7--8--x--9-----------------------------9--7-----7--8----------|
D|---------------------7--8--x--9---5--6--x--7---------9--------7--9----|
A|-/7-------------------------------------------------------------------|
E|----------------------------------------------------------------------| x1

G|--------------------------------------------------------|
D|--------------------------------------------------------|
A|-----------------0--2--------------2--5--------2--5-----|
E|--0-----0--2--3-----------5--3--5--------5--5--------3--| x2

G|--------7--8--9-----------------------------------------|
D|---------------------4----7--9--7----7--9--7--5--7--5---|
A|--------------------------------------------------------|
E|--0---------------2-------------------------------------| x3

G|--------7--8--9----------------------9--7-----7--8--------|
D|---------------------4----7--9--7----------9--------7--9--|
A|----------------------------------------------------------|
E|--0---------------2---------------------------------------| x1

G|--------------------------------------------------------|
D|--------------------------------------------------------|
A|-----------------0--2--------------2--5--------2--5-----|
E|--0-----0--2--3-----------5--3--5--------5--5--------3--| x2

G|--------7--8--x--9--------------------------------------7--9/11-------|
D|---------------------7--8--x--9---5--6--x--7---5--7/9-----------------|
A|-/7-------------------------------------------------------------------|
E|----------------------------------------------------------------------| x3

G|--------7--8--x--9-----------------------------9--7-----7--8----------|
D|---------------------7--8--x--9---5--6--x--7---------9--------7--9----|
A|-/7-------------------------------------------------------------------|
E|----------------------------------------------------------------------| x1

G|--------------------------------------------------------|
D|--------------------------------------------------------|
A|-----------------0--2--------------2--5--------2--5-----|
E|--0-----0--2--3-----------5--3--5--------5--5--------3--| till fade
Добавлено: 22.10.2013
Другие материалы по этой песне:
  • Аккорды и текст

Страница создана 22.10.2013
http://primanota.ru/sarlo-akrobata/ona-se-budi-chords.htm
Привет, Гость.
Предлагаем пройти революционный курс по гитаре.
Подарок от PrimaNota.Ru, забирай!