PrimaNota.ru - самый крупный в мире бесплатный архив песенных текстов, аккордов, табулатур и нот


Sarlo Akrobata - Niko Kao Ja - бас-таба, видео

Регистрация Запомнить меня
Войти через:  Facebook Google Twitter Vk Yandex Mail.ru

Sarlo Akrobata - Niko Kao Ja - бас-таба, видео

Печатать
Просмотров: 91
Уроки эстрадного вокала в Санкт-Петербурге
G|----------------------------|
D|--------2-------------------|
A|--0--3-----3--------2-------|
E|--------------0--3-----3----| x2

G|----------------------------|
D|----------------------------|
A|--5--4--5--6--------2-------|
E|--------------0--3-----3----|

G|----------------------------|
D|----------------------------|
A|--5--4--5--6-----5--3--2----|
E|--------------0-------------|

Bridge

G|--8-7-6-5-----------------------------------------------5-6-7-8--|
D|----------8-7-6-5-------------------------------5-6-7-8----------|
A|------------------8-7-6-5---------------5-6-7-8------------------|
E|--------------------------8-7-6-5-6-7-8--------------------------|
Добавлено: 16.09.2013
Другие материалы по этой песне:
  • Аккорды и текст

Страница создана 16.09.2013
http://primanota.ru/sarlo-akrobata/niko-kao-ja-chords.htm
Привет, Гость.
Предлагаем пройти революционный курс по гитаре.
Подарок от PrimaNota.Ru, забирай!