PrimaNota.ru - самый крупный в мире бесплатный архив песенных текстов, аккордов, табулатур и нот


Sarcoma K - Surfering - таба, видео

Регистрация Запомнить меня
Войти через:  Facebook Google Twitter Vk Yandex Mail.ru

Sarcoma K - Surfering - таба, видео

Печатать
Просмотров: 67
                             Surfering


SARCOMA K. - Surfering (4:28)
Original version.

Lyrics: Lucas Godoy
Music:  Ricardo Magno


You can find the song and the tablature in "Guitar Pro" format (gp3) at 
KaZaA,
Enjoy that!


Intro

Riff 01
At 2nd time slow down.
E||-------------------|-------------------|-------------------|
B||-------------------|-------------------|-------------------|
G||-------------------|-------------------|-------------------|
D||--4----------------|--5----------------|--4----------------|
A||--4----------------|--5----------------|--4----------------|
E||--2----------------|--3----------------|--2----------------|



-------------------|-------------------|-------------------|-------------------|
-------------------|-------------------|-------------------|-------------------|
-------------------|-------------------|-------------------|-------------------|
--7----------------|--4----------------|--5----------------|--4----------------|
--7----------------|--4----------------|--5----------------|--4----------------|
--5----------------|--2----------------|--3----------------|--2----------------|


                      Riff 02
                      Use palm mute in all notes
--------------------||-----------------------------------|
--------------------||-----------------------------------|
-------------------*||*----------------------------------|
--2----------------*||*----------------------------------|
--2-----------------||-----------------------------------|
--0-----------------||---2-2-2-2-2-2-2-2-2-2-2-2-2-2-2-2-|



----------------------------------|----------------------------------|
----------------------------------|----------------------------------|
----------------------------------|----------------------------------|
----------------------------------|----------------------------------|
----------------------------------|----------------------------------|
--3-3-3-3-3-3-3-3-3-3-3-3-3-3-3-3-|--2-2-2-2-2-2-2-2-2-2-2-2-2-2-2-2-|



----------------------------------|----------------------------------|
----------------------------------|----------------------------------|
----------------------------------|----------------------------------|
----------------------------------|----------------------------------|
----------------------------------|----------------------------------|
--5-5-5-5-5-5-5-5-5-5-5-5-5-5-5-5-|--2-2-2-2-2-2-2-2-2-2-2-2-2-2-2-2-|



----------------------------------|----------------------------------|
----------------------------------|----------------------------------|
----------------------------------|----------------------------------|
----------------------------------|----------------------------------|
----------------------------------|----------------------------------|
--3-3-3-3-3-3-3-3-3-3-3-3-3-3-3-3-|--2-2-2-2-2-2-2-2-2-2-2-2-2-2-2-2-|



-----------------------------------||
-----------------------------------||
----------------------------------*||
----------------------------------*||
-----------------------------------||
--0-0-0-0-0-0-0-0-0-0-0-0-0-0-0-0--||


Riff 03
Vocal starts here
Use palm mute in all notes
-----------------------------------------------------------|
-----------------------------------------------------------|
*----------------------------------------------------------|
*----------------------------------------------------------|
---------------------------------------------3-3-3--2-2-2--|
---0-0-0--0-0-0--3-3-3--3-3-3--1-1-1--1-1-1----------------|


                                                           3x
-----------------------------------------------------------||
-----------------------------------------------------------||
----------------------------------------------------------*||
----------------------------------------------------------*||
-----------------------------------------------------------||
--0-0-0--0-0-0--3-3-3--3-3-3--1-1-1--1-1-1--2-2-2--2-2-2---||


Riff 04
  | --palm mute-->|                | --palm mute-->|
---------------------------------|-----------------------------|
---------------------------------|-----------------------------|
*------------------10--10--10----|-----------------------------|
*------------------10--10--10----|------------------3--3--3----|
-------------------8---8---8-----|------------------3--3--3----|
---0-0-0-0-0-0-0-0---------------|--0-0-0-0-0-0-0-0-1--1--1----|


| -p.m.->|                                         | --p.m.->|
-----------------------------------------------||--------------------------|
-----------------------------------------------||--------------------------|
----------------------------------------------*||*-------------------------|
----------10-10-10-10-13-13-13-13-12-12-12-12-*||*--------------10/---3----|
----------8--8--8--8--11-11-11-11-10-10-10-10--||---------------8-----1----|
--0-0-0-0--------------------------------------||---0--0--0--0-------------|


| ---p.m.--->|           | p.m.>|
------------------------|---------------------------------------------||
------------------------|---------------------------------------------||
------------------------|--------------------------------------------*||
------------------------|--------10-10-10-10-13-13-13-13-12-12-12-12-*||
--------------3/---2----|--------8--8--8--8--11-11-11-11-10-10-10-10--||
--0--0--0--0--1----0----|--0--0---------------------------------------||


Palm mute to all notes
------------------------------------||------------------------------------||
------------------------------------||------------------------------------||
*----------------------------------*||*----------------------------------*||
*----------------------------------*||*----------------------------------*||
------------------------------------||------------------------------------||
---0-0-0-0-0-0-0-0-4-4-4-4-4-4-4-4--||---3-3-3-3-3-3-3-3-7-7-7-7-7-7-7-7--||


This part uses a duet.

Guitar 01
------------------------------------||------------------------------------||
------------------------------------||------------------------------------||
*----------------------------------*||*----------------------------------*||
*----------------------------------*||*----------------------------------*||
-----------2-2-2-2---------6-6-6-6--||-----------5-5-5-5---------9-9-9-9--||
---0-0-0-0---------4-4-4-4----------||---3-3-3-3---------7-7-7-7----------||


Guitar 2
------------------------------------||------------------------------------||
------------------------------------||------------------------------------||
*----------------------------------*||*----------------------------------*||
*----------------------------------*||*--------------------------7-7-7-7-*||
-----------5-5-5-5---------9-9-9-9--||-----------8-8-8-8-5-5-5-5----------||
---3-3-3-3---------7-7-7-7----------||---6-6-6-6--------------------------||



Riff 03
Vocal returns
-----------------------------------------------------------|
-----------------------------------------------------------|
*----------------------------------------------------------|
*----------------------------------------------------------|
---------------------------------------------3-3-3--2-2-2--|
---0-0-0--0-0-0--3-3-3--3-3-3--1-1-1--1-1-1----------------|



-----------------------------------------------------------||
-----------------------------------------------------------||
----------------------------------------------------------*||
----------------------------------------------------------*||
-----------------------------------------------------------||
--0-0-0--0-0-0--3-3-3--3-3-3--1-1-1--1-1-1--2-2-2--2-2-2---||


V => Dive and return with whammy bar 1/2

  V                  Sometimes is used palm mute and others open notes
-------------------||----------------------------------|
-------------------||----------------------------------|
-------------------||*---------------------------------|
--2----------------||*---------------------------------|
--2----------------||---5-4-4-5-4-4-5-4-4-5-4-4-5-4-2--|
--0----------------||---3-2-2-3-2-2-3-2-2-3-2-2-3-2-0--|


                                  7x
----------------------------------||
----------------------------------||
---------------------------------*||
---------------------------------*||
--5-4-4-5-4-4-5-4-4-5-4-4-5-4-7---||
--3-2-2-3-2-2-3-2-2-3-2-2-3-2-5---||


Part after solo. All note is palm mute
-----------------------------------------------------------|
-----------------------------------------------------------|
*----------------------------------------------------------|
*----------------------------------------------------------|
-----------------------------------------------------------|
---2-2-2--2-2-2--3-3-3--3-3-3--2-2-2--2-2-2--5-5-5--5-5-5--|


                                                           3x
-----------------------------------------------------------||
-----------------------------------------------------------||
----------------------------------------------------------*||
----------------------------------------------------------*||
-----------------------------------------------------------||
--2-2-2--2-2-2--3-3-3--3-3-3--2-2-2--2-2-2--0-0-0--0-0-0---||


Riff 03
-----------------------------------------------------------|
-----------------------------------------------------------|
*----------------------------------------------------------|
*----------------------------------------------------------|
---------------------------------------------3-3-3--2-2-2--|
---0-0-0--0-0-0--3-3-3--3-3-3--1-1-1--1-1-1----------------|


                                                           3x
-----------------------------------------------------------||
-----------------------------------------------------------||
----------------------------------------------------------*||
----------------------------------------------------------*||
-----------------------------------------------------------||
--0-0-0--0-0-0--3-3-3--3-3-3--1-1-1--1-1-1--2-2-2--2-2-2---||


Riff 04
---------------------------------|-----------------------------|
---------------------------------|-----------------------------|
*------------------10--10--10----|-----------------------------|
*------------------10--10--10----|------------------3--3--3----|
-------------------8---8---8-----|------------------3--3--3----|
---0-0-0-0-0-0-0-0---------------|--0-0-0-0-0-0-0-0-1--1--1----|



-----------------------------------------------||-------------------------|
-----------------------------------------------||-------------------------|
----------------------------------------------*||-------------------------|
----------10-10-10-10-13-13-13-13-12-12-12-12-*||--------------10/---3----|
----------8--8--8--8--11-11-11-11-10-10-10-10--||--------------8-----1----|
--0-0-0-0--------------------------------------||--0--0--0--0-------------|



------------------------|--------------------------------------------|
------------------------|--------------------------------------------|
------------------------|--------------------------------------------|
------------------------|--------10-10-10-10-13-13-13-13-12-12-12-12-|
--------------3/---2----|--------8--8--8--8--11-11-11-11-10-10-10-10-|
--0--0--0--0--1----0----|--0--0--------------------------------------|



-------------------------|------------------------|
-------------------------|------------------------|
-------------------------|------------------------|
--------------10/---3----|------------------------|
--------------8-----1----|--------------3/---2----|
--0--0--0--0-------------|--0--0--0--0--1----0----|



-------------------------------------------||
-------------------------------------------||
-------------------------------------------||
--------10-10-10-10-13-13-13-13-12-12-12-2-||
--------8--8--8--8--11-11-11-11-10-10-10-2-||
--0--0-----------------------------------0-||


ricmagno@msn.com
     
Добавлено: 03.07.2013
Другие материалы по этой песне:
  • Аккорды и текст

Страница создана 03.07.2013
http://primanota.ru/sarcoma-k/surfering-chords.htm
Привет, Гость.
Предлагаем пройти революционный курс по гитаре.
Подарок от PrimaNota.Ru, забирай!