PrimaNota.ru - самый крупный в мире бесплатный архив песенных текстов, аккордов, табулатур и нот


Sarcofago - Deathrash - таба, видео

Регистрация Запомнить меня
Войти через:  Facebook Google Twitter Vk Yandex Mail.ru

Sarcofago - Deathrash - таба, видео

Печатать
Просмотров: 102
Уроки эстрадного вокала в Санкт-Петербурге
Band:  Sarcófago
Album: "INRI"
Song:  Deathrash

Copyright (c)  Cogumelo (1987)
Version 1.0 - 01/30/2006

Transcribed By: Decimator
Email:          decimator_@hotmail.com


.  - palm mute           /  - slide up to
\  - slide down to       ~  - vibrato
h  - hammer on           b  - Bend
p  - pull off            Suffixes for bend
t  - tap                 f  - full bend    h - half bend
ph - pinched harmonic    q  - quarter bend t - tap bend
*  - see comment         ^  - Hold bend    r release bend
x  - Stuccatto           ~  - vibrato bend
,  - slight palm mute    () - ghost note, sustained note
"  - tremolo note        <> - Trill

Tuning E A D G B E

Riff I
|-------------------------------------------------------------------|
|-------------------------------------------------------------------|
|-------------------------------------------------------------------|
|-------------------------------------------------------------------|
|--3"----4---3/4-6"-------------------------------------------------|
|--1"----2p0h1/2-4"-------------------------------------------------|

Riff II
|-------------------------------------------------------------------|
|-------------------------------------------------------------------|
|-------------------------------------------------------------------|
|--6"---5"---6"---5-5-5---------------------------------------------|
|--4"---3"---4"---3-3-3---------------------------------------------|
|-------------------------------------------------------------------|

Fill:
|-------------------------------------------------------------------|
|-------------------------------------------------------------------|
|-------------------------------------------------------------------|
|-------------------------------------------------------------------|
|--3----------------------------------------------------------------|
|--1----------------------------------------------------------------|
   x

Riff IIIa
|-------------------------------------------------------------------|
|-------------------------------------------------------------------|
|-------------------------------------------------------------------|
|-------------------------------------------------------------------|
|----3---4---5---6--------------------------------------------------|
|--0-1-0-2-0-3-0-4--------------------------------------------------|

Riff IIIb
|-------------------------------------------------------------------|
|-------------------------------------------------------------------|
|-------------------------------------------------------------------|
|-------------------------------------------------------------------|
|--2"-3"-2"-4"-2"-5"-2"-6"------------------------------------------|
|--0"-1"-0"-2"-0"-3"-0"-4"------------------------------------------|

Riff IV
|-------------------------------------------------------------------|
|-------------------------------------------------------------------|
|-------------------------------------------------------------------|
|-------3---------6\3-------3---------3-----------------------------|
|--2----1----2----4\1--2----1----2----1-----------------------------|
|--0---------0---------0---------0----------------------------------|


END
Добавлено: 13.08.2013
Другие материалы по этой песне:

Страница создана 13.08.2013
http://primanota.ru/sarcofago/deathrash-chords.htm
Привет, Гость.
Предлагаем пройти революционный курс по гитаре.
Подарок от PrimaNota.Ru, забирай!