PrimaNota.ru - самый крупный в мире бесплатный архив песенных текстов, аккордов, табулатур и нот


Sarah Jarosz - My Muse - таба, видео

Регистрация Запомнить меня
Войти через:  Facebook Google Twitter Vk Yandex Mail.ru

Sarah Jarosz - My Muse - таба, видео

Печатать
Просмотров: 124
Авторы музыки: Sarah Jarosz
Авторы текста: Sarah Jarosz
Tuning: Standard (EADGBE)


Verse:

  Pick, Let Ring, Mute G and D strings with middle finger

E --0-----|--0-----|--0-----|--0-----|--0---2-|--0---2-|--0---2-|--0---0-|
B ----2---|----2---|----2---|----2-4-|----4---|----4---|----4---|----4---|
G --------|--------|--------|--------|--------|--------|--------|--------|
D --------|--------|--------|--------|--------|--------|--------|--------|
A 0-------|0-------|0-------|0-------|0-------|0-------|0-------|0-------|
E --------|--------|--------|--------|--------|--------|--------|--------|


Chorus:

  Strum

E 2-------|--------|2-------|--------|2-------|--------|2-------|--------|
B 2---X-X-|--X-X-X-|2---X-X-|--X-X-X-|2---X-X-|--X-X-X-|2---X-X-|--X-X---|
G 2-------|--------|2-------|--------|2-------|--------|2-------|--------|
D 4-------|--------|3-------|--------|2-------|--------|1-------|--------|
A --------|--------|--------|--------|--------|--------|--------|--------|
E --------|--------|--------|--------|--------|--------|--------|--------|

E ------0-|--0-----|--------|--------|--------|--------|--------|--------|
B ----3---|--3-X—X-|--X-X-X-|--X-X---|2---2-3-|--3---2-|--2-2-2-|2-0-----|
G --2-----|--2-----|--------|--------|2---2-2-|--2---2-|--------|----2---|
D 0-------|--0-----|--------|--------|2---2-2-|--2---2-|--------|--------|
A --------|--------|--------|--------|0---0-0-|--0---0-|--------|--------|
E --------|--------|--------|--------|--------|--------|--------|--------|

Добавлено: 07.05.2012
Другие материалы по этой песне:
  • Аккорды и текст

Страница создана 07.05.2012
http://primanota.ru/sarah-jarosz/my-muse-chords.htm
Привет, Гость.
Предлагаем пройти революционный курс по гитаре.
Подарок от PrimaNota.Ru, забирай!