PrimaNota.ru - самый крупный в мире бесплатный архив песенных текстов, аккордов, табулатур и нот


Sarah Harmer - Open Window - аккорды и текст, видео

Регистрация Запомнить меня
Войти через:  Facebook Google Twitter Vk Yandex Mail.ru

Sarah Harmer - Open Window - аккорды и текст, видео

Печатать
Просмотров: 130
Open Window
Sarah Harmer
Open Window
(the wedding song)
by Sarah Harmer
from You Were Here

transcribed by Bruce Muckala
standard tuning
corrections welcomed!

(note the B7 is B7/D# throughout)


E B7 E B7 E B7 E B7


E    B7           E
Love,  ......
  B7          E
adrift ......
B7              A           A/C#
floating by the open window
E       B7            E
oh, the sentiment ......
   B7                  E
reflections.......
         B7
what can enter......
         A               A/C#
when our hearts .....
F#m              A
Here ......    appear


     E      A       B
how sacred love can be


E       B7               E
Shared, ..........
     B7             E
.................................
      B7       A           A/C#
............. cultivated


E   E/G#  A               E
Our love   ...... scared thing
         E/G#      A
..................................
E       E/G#        A
 in the darkness ...
E     E/G#     A                E
  and still so strong ............
    E/G#  A                E
Our love   ....... infinite thing
         E/G#       A          E
like the sun's last ray on the sea
        E/G#  A
  as it sets low .....
B                         A
and the moon rises.

E   B7   E  B7  E   B7   E  B7

She does this on the A at the end of the chorus:
-------------------
-------------------
---2---------------
-------2-----------
------------0------
-------------------

Second verse same as first except for a few word changes.

Here's the notes of the electric piano riff/intro
   E                B7/D#               E              B7/D#
|-----------------------------------|-----------------------------------|

|---------------5-4-----------------|-----------------------------------|

|-----------------------------------|-----------------------------------|

|-------------------4-------6---6---|-----------------------------------|

|-----------------------------------|-----------------------------------|

|-----------------------------------|-----------------------------------|

    1   .   2   .   3   .   4   .   |   1   .   2   .   3   .   4   .
|

   E                B7/D#               E              B7/D#
|-----------------------------------|-----------------------------------|

|---------------5-4-----------------|-----------------------------------|

|-----------------------------------|-----------------------------------|

|-------------------4---7-----6-----|-----------------------------------|

|-----------------------------------|---7-------------------------------|

|-----------------------------------|-----------------------------------|

    1   .   2   .   3   .   4   .   |   1   .   2   .   3   .   4   .
|


     
Добавлено: 06.06.2013
Другие материалы по этой песне:
  • Аккорды и текст

Страница создана 13.04.2012
http://primanota.ru/sarah-harmer/open-window-chords.htm
Привет, Гость.
Предлагаем пройти революционный курс по гитаре.
Подарок от PrimaNota.Ru, забирай!