PrimaNota.ru - самый крупный в мире бесплатный архив песенных текстов, аккордов, табулатур и нот


Sarah Dawn Finer - Valborg - таба, видео

Регистрация Запомнить меня
Войти через:  Facebook Google Twitter Vk Yandex Mail.ru

Sarah Dawn Finer - Valborg - таба, видео

Печатать
Просмотров: 77
-------------------------------------------------------------------------------
                             Valborg - Sarah Dawn Finer
-------------------------------------------------------------------------------
Tabbed by: LillaMartin
E-mail: RasmusSture@hotmail.se

Tuning: standard capo 2th fret
Till låten! Ganska enkla ackord, G, Em, Bm C och D. 

Det som den duktiga gitarristen gör är att han spelar en annan variant av D 
achordet bara så det spelas på detta viset: 

e|---0---------------------|
B|---3---------------------|
G|---0---------------------|
D|---4---------------------|
A|---5---------------------|
E|---0---------------------|

I princip så spelar han alla ackord i introt som han kommer använda i resten 
av låten också. Men då kör vi! Har ni några frågor så kommentera. 

     Em                              Bm

e|------------0----------0---------------------------------------------------|
B|---------------0----------0----------------3-----------3-------------------|
G|-----------------------------------------------2-----------2---------------|
D|------------------2----------2---------4-----------4-----------4-----------|
A|-------2---------------------------2---------------------------------------|
E|---0-----------------------------------------------------------------------|

     C                          D

e|---------------------------------------------------------------------------|
B|-----------1---------1---------------------3-------------------------------|
G|--------------0---------0---------------0-----0------0---------------------|
D|-------2---------2---------2-------4h5-----------5-------------------------|
A|---3--------------------------3/5------------------------------------------|
E|---------------------------------------------------------------------------|

     Em                       Bm

e|----------0--------0-------------------------------------------------------|
B|-------------0--------0-------------3---------3----------------------------|
G|---------------------------------------2---------2-------------------------|
D|----------------2-------2-------4---------4---------4----------------------|
A|------2---------------------2----------------------------------------------|
E|---0-----------------------------------------------------------------------|

     C                           D

e|---------------------------------------------------------------------------|
B|-----------1----------------1-------------3--------------------------------|
G|--------------0----------0-------------0-----0-----0-----------------------|
D|-------0-----------0h2--------------4-----------4--------------------------|
A|---3---------------------------3/5-----------------------------------------|
E|---------------------------------------------------------------------------|

Verse:

e|----------------3----------------------------------------------------------|
B|----------3-----------3------------------3------------------------1--------|
G|-------0-----0-----0-----0---------2-----------2------------0-----------0--|
D|--------------------------------4-----4-----4-----4------2-----2-----2-----|
A|-----------------------------2------------------------3--------------------|
E|--0--3---------------------------------------------------------------------|

e|---------------------------------------------------------------------------|
B|-------------------3-------------------------------------------------------|
G|-------------0-----------0-------------------------------------------------|
D|--2-------4-----4-----4-----4----------------------------------------------|
A|-----3/5-------------------------------------------------------------------|
E|---------------------------------------------------------------------------|

Repetera denna delen 2x sen:

e|---------------------------------------------------------------3-----------|
B|--------------1--------------------------3------------------3-----------3--|
G|--------0-----------0--------------0-----------0---------0-----------2-----|
D|-----2-----2-----2-----2--------4-----4-----4------------------------------|
A|--3------------------------3/5---------------------------------------------|
E|---------------------------------------------------0--3-----------2--------|

e|--2------------0-----------------------------------------------------------|
B|-----------------------------3----------------1-------------------------3--|
G|------------0-------------0-------------0-----------0-------------0--------|
D|---------2-------------4-------------2-----2-----2-----2-------4-----4-----|
A|------2-----------3/5-----------5/3-----------------------3/5--------------|
E|---------------------------------------------------------------------------|

e|--------------------------------------------------------2------------------|
B|-------------------------1--------------------------3----------------------|
G|-----0-------------0-----------0----------------2--------------------------|
D|--4-----4-------2-----2-----2-----2---------0------------------------------|
A|-----------5/3--------------------------0----------------------------------|
E|---------------------------------------------------------------------------|

Tillbaka till intro och sedan verse igen. 
Slå sedan vid bryggan:

C                G                Bm
Du kanske aldrig når dit du vill nå
           C D
men du når mig
Em                 Bm             C
Du kanske aldrig får den du vill få
D       D        
men du får mig


Sådär! Är det något som ni saknar så kommentera så löser jag det! :) 

************************************

| /   slide up
| \   slide down
| h   hammer-on
| p   pull-off
| ~   vibrato
| +   harmonic
| x   Mute note
| b   Bend
| pb  Pre-bend
| br  Bend release
| pbr Pre-bend release
| brb Bend release bend

************************************
Добавлено: 30.06.2015
Другие материалы по этой песне:
  • Аккорды и текст

Страница создана 30.06.2015
http://primanota.ru/sarah-dawn-finer/valborg-chords.htm
Привет, Гость.
Предлагаем пройти революционный курс по гитаре.
Подарок от PrimaNota.Ru, забирай!