PrimaNota.ru - самый крупный в мире бесплатный архив песенных текстов, аккордов, табулатур и нот


Sarah Borges And The Broken Singles - Do It For Free - таба, видео

Регистрация Запомнить меня
Войти через:  Facebook Google Twitter Vk Yandex Mail.ru

Sarah Borges And The Broken Singles - Do It For Free - таба, видео

Печатать
Просмотров: 90
-----------------------------------------------------------------------------
         DO IT FOR FREE - Sarah Borges and the Broken Singles
-----------------------------------------------------------------------------

Tabbed by: David
Email: djsparks@umich.edu

This song seems to be a half-step above standard tuning. If you put a capo on the first
it will sound just like the recording. The tabs are not written in relation to the capo,
as they are on the fret board. I put in the solo, but it is just an approximation. This 
the first tab I've made; I heard the song on the radio and had the urge to play it
Let me know how it goes!

Main Riff/Verse (3 slight variations of the same thing)

Riff 1
e|----------------------------------------------------------------------|
B|----------------------------------------------------------------------|
G|----------------------------------------------------------------------|
D|-5---5-5---5-5--------------------------------------------------------|
A|-3---6-6---3-0---8-8---10---10-10-5-----------------------------------|
E|-----------------6-6---8----8--8--0-----------------------------------|

Riff 2
e|----------------------------------------------------------------------|
B|----------------------------------------------------------------------|
G|----------------------------------------------------------------------|
D|-5---5-5---5-5--------------------------------------------------------|
A|-3---6-6---3-0---8-8-8-8-8-8-8-5--------------------------------------|
E|-----------------6-6-6-6-6-6-6-0--------------------------------------|

Riff 1

Riff 3
e|----------------------------------------------------------------------|
B|----------------------------------------------------------------------|
G|----------------------------------------------------------------------|
D|-5---5-5--------------------------------------------------------------|
A|-3---6-6---10-8-8s10-10-10---8-8s10-10-10-----------------------------|
E|-----------8—-6-6s8--8—-8—---6-6s8--8--8------------------------------|

Chorus

“Waitin' for me...              ...You say where and I say when”
e|-0-let-ring-----------------------------------------------------------|
B|-0--------------------------------------------------------------------|
G|-2--------------------------------------------------------------------|
D|-3--3-3-3-3-----------------------------------------------------------|
A|-3--3-3-3-3------------10-10-12-10-10-10-12-10-10-10-12-10-10-10-12---|
E|-0--0-0-0-0------------8—-8--8—-8--8--8--8--8--8--8--8--8--8--8--8----|
        PM                                  PM


“I never forget...  When it's real love...  You know you do it...”
e|-------------------------5-hold-----------------0-hold----------------|
B|-------------------------6----------------------0---------------------|
G|-------------------------7----------------------2---------------------|
D|-8-8-8-8-8-8-------------7----------------------3---------------------|
A|-8-8-8-8-8-8-------------5----------------------3---------------------|
E|-6-6-6-6-6-6------------------------------------0---------------------|


Solo
e|----------------------------------------------------------------------|
B|-----0---3b4-0-------0------/00000000----/00000000--------------------|
G|-3b5---3---------3b5--------/33333333----/55555555--------------------|
D|---------------5------5-----/55555555----/77777777--------------------|
A|----------------------------------------------------------------------|
E|------------—-------—--—----------------------------------------------|


e|----------------------------------------------------------------------|
B|-6b8-8-8-8-8-8r6-----------9b11---------------------------------------|
G|----hold-bend----8--------8---------12-11-10-8------8-----------------|
D|-------------------10-8-10---------------------10-8--10-8-------------|
A|----------------------------------------------------------10-8--------|
E|------------—-------—--—--------------------------------------11-8-6-8|

End
e|----------------------------------------------------------------------|
B|----------------------------------------------------------------------|
G|----------------------------------------------------------------------|
D|----------------------------------------------------------------------|
A|------------8-8s10-10-10--8-8s-10-10-10---8-10----13-10~~~~-----------|
E|------------6-6s8--8—-8—--6-6s-8--8--8----6-8-----11-8~~~~~---ooohh---|
Добавлено: 30.07.2012
Другие материалы по этой песне:
  • Аккорды и текст

Страница создана 30.07.2012
http://primanota.ru/sarah-borges-and-the-broken-singles/do-it-for-free-chords.htm
Привет, Гость.
Предлагаем пройти революционный курс по гитаре.
Подарок от PrimaNota.Ru, забирай!