PrimaNota.ru - самый крупный в мире бесплатный архив песенных текстов, аккордов, табулатур и нот


Saqar - Unter Der Erde - бас-таба, видео

Регистрация Запомнить меня
Войти через:  Facebook Google Twitter Vk Yandex Mail.ru

Saqar - Unter Der Erde - бас-таба, видео

Печатать
Просмотров: 81
Song:  Unter der Erde (available on www.saqar.de -> "Hörproben")
Artist: SaqaR
Album:  Unter Toten


Intro
{two times intro-riff by guitar; third time I join on the last four notes
by playing flageolets/harmonies}
G:|----------------|----------------|----------------------------|
D:|----------------|----------------|------------(9)-(7)---------|
A:|----------------|----------------|--------------------(9)-(7)-|
E:|----------------|----------------|----------------------------|

Verse
{it's almost the same on the rhythm-guitar except the ending while i play
chords on the bass for a better "pressure-feeling" :-)}  
G:|------------------|-------------------|
D:|------------------|-------------------|
A:|-2/7-7-7--2/5-5-5-|-2/3-3-3--7-7-7-7--|
E:|------------------|----------0-0-0-0--|

Bass-Interlude
{check this also on some effects}   
G:|-------------------------------------------------------------
D:|-----16-------------16-------------17------------------------
A:|-14------14-14--15------14-14--15------15-15--18--18--15--15-
E:|-------------------------------------------------------------

Pre-Chorus 
{play the high D (A15) with a powerful tapped note...let it ring}
G:|-----------------|--------------|-----------------|-----------------|
D:|-----------------|--------------|-----------------|-----------------|
A:|-----------------|----------15--|-----------------|-----------------|
E:|-0-0-0-0-0-0-0-0-|-0-0-0-0------|-0-0-0-0-0-0-0-0-|-0-0-0-0--9--10--|
        
Chorus/Guitar-Solo
{try to involve some hammering ons(A9h10); 3rd and 4th time built
triplets}
G:|--------------|--------------|--------------|-----------------|
D:|--------------|--------------|--------------|-----------------|
A:|-9-9-9-9-9-10-|-9-9-9-9-9-10-|-9-9-9-9-9-10-|-5-5-5-5-7-7-5h7-|
E:|--------------|--------------|--------------|-----------------|

Bridge/Outro
{the song ends on a C# (E9) put this single note in addition}
G:|--------|--------|--------|---------|
D:|--------|--------|--------|---------|
A:|--------|--------|--------|---------|
E:|-9-9-10-|-9-9-10-|-9-9-10-|-5-7-5h7-|


Order of the song:
1x Intro
3x Verse
2x Bass-Interlude
2x Verse
2x Bass-Interlude
1x Pre-Chorus
4x Chorus/Guitar-Solo
2x Bridge
3x Verse
2x Bass-Interlude
2x Verse
2x Bass-Interlude
1x Pre-Chorus
4x Chorus/Guitar-Solo
2x Outro(2X Bridge + C#)

Notice: No pick. I use a lot of heavy accents in my way to play bass.
  Figure out when and have fun!

A piece of:  SaqaR-Music
Audio-Source:   www.saqar.de (-> "Hörproben" )
Comments:   www.saqar.de (-> "Gästebuch" )
The basslines
are tabbed &
composed by:   Marco Scheidweiler
E-Mail:   metalmarco@web.de
     
Добавлено: 30.07.2013
Вам также может быть интересно:
Другие материалы по этой песне:
  • Аккорды и текст

Страница создана 30.07.2013
http://primanota.ru/saqar/unter-der-erde-chords.htm
Привет, Гость.
Предлагаем пройти революционный курс по гитаре.
Подарок от PrimaNota.Ru, забирай!