PrimaNota.ru - самый крупный в мире бесплатный архив песенных текстов, аккордов, табулатур и нот


Saqar - Leichenmantel - бас-таба

Регистрация Запомнить меня
Войти через:  Facebook Google Twitter Vk Yandex Mail.ru

Saqar - Leichenmantel - бас-таба

Печатать
Просмотров: 120
Song:  Leichenmantel (available on www.saqar.de -> "Hörproben")
Artist: SaqaR
Album: Unter Toten


The bass joins on the last two measures of the verse
after the guitar has played the first verse-part

Verse
repeat it ones
G:||--------------------------|-----------------------||
D:||*-------------------------|----------------------*||
A:||*-------11-11-11-12-12-12-|-------9-9-9-10-10-10-*||
E:||--9-9-9-------------------|-7-7-7-----------------||
    
G:|----------|---------|
D:|----------|---------|
A:|----3-2-3-|---4-3-4-|
E:|--2-------|-3-------|


Chorus
repeat it ones 
G:||--------------|--------------||
D:||*-------------|-------------*||
A:||*-------------|-------------*||
E:||--2-2-2-2-2-2-|-3-3-3-3-3-3--||
  
G:|-------------|-------------|-------------|---------------|
D:|-------------|-------------|-------------|---------------|
A:|-------------|-------------|-------------|---------------|
E:|-6-6-6-6-6-6-|-5-5-5-5-5-5-|-0-0-0-0-0-0-|-0-0-0-0-0-0-0-|

3rd and 4th time the last two measures of the chorus are substituted
for a break containing a single E (E0)


Ending
repeat it ones
G:||----------|----------||---------------|-------------|
D:||*---------|---------*||---------------|-------------|
A:||*---------|---------*||---------------|-------------|
E:||--2-2-2-2-|-3-3-3-3--||-3/6-6-6-6-6-6-|-5-5-5-5-5-5-|

G:|---------|-----------------|
D:|---------|-----------------|
A:|---------|-----------------|
E:|-0-0-0-0-|-0-0-0-0-0-0-1-0-|


Order of the song:
4x Verse
4x Chorus (3rd and 4th time with break at the end)
4x Verse
4x Chorus (3rd and 4th time with break at the end)
1x Ending

Notice: No pick. I use a lot of heavy accents in my way to play
bass.          Figure out when and have fun!

A piece of:    SaqaR-Music
Audio-Source:  www.saqar.de (-> "Hörproben" )
Comments:      www.saqar.de (-> "Gästebuch" )
The basslines
are tabbed by: Marco Scheidweiler
E-Mail:        metalmarco@web.de
     
Добавлено: 16.08.2013
Вам также может быть интересно:
Другие материалы по этой песне:
  • Аккорды и текст

Страница создана 16.08.2013
http://primanota.ru/saqar/leichenmantel-chords.htm
Привет, Гость.
Предлагаем пройти революционный курс по гитаре.
Подарок от PrimaNota.Ru, забирай!