PrimaNota.ru - самый крупный в мире бесплатный архив песенных текстов, аккордов, табулатур и нот


Saosin - Keep Secrets - текст песни, таба, видео

Регистрация Запомнить меня
Войти через:  Facebook Google Twitter Vk Yandex Mail.ru

Saosin - Keep Secrets - текст песни, таба, видео

Печатать
Просмотров: 149
-------------------------------------------------------------------------------
                             KEEP SECRETS - Saosin
-------------------------------------------------------------------------------
Tabbed by: BlackRoseDying_

Tuning: DADGBE


  Lead guitar:

e|---------------------------------------------------------------------------|
B|-----11--11--11--11--13--13--13-------11--11--11-------10--10--10----------|
G|--14~--14--14--14--14--14--14—14---12~--12--12—12---12~--12--12--12--------|
D|---------------------------------------------------------------------------|
A|---------------------------------------------------------------------------|
D|---------------------------------------------------------------------------|

e|-----10--10--10--10--10--10--10--------------------------------------------|
B|---------------------------------------------------------------------------|
G|--10~--10--10--10--10--10--10--10---7~--7-7-7-7-7-7-7-7/10-10-10-10p7---x2-|
D|---------------------------------------------------------------------------|
A|---------------------------------------------------------------------------|
D|---------------------------------------------------------------------------|


  Rhythm guitar:

e|---------------------------------------------------------------------------|
B|---------------------------------------------------------------------------|
G|-------------------33333333------------------------------------------------|
D|--5555555555555555-33333333-33333333-11111111-0----x2----------------------|
A|--5555555555555555-11111111-33333333-11111111-0----------------------------|
D|--5555555555555555----------33333333-11111111-0----------------------------|



| /  slide up
| \  slide down
| h  hammer-on
| p  pull-off
| ~  vibrato
| +  harmonic
| x  Mute note
===============================================================================

Добавлено: 12.05.2012
Другие материалы по этой песне:

Страница создана 12.05.2012
http://primanota.ru/saosin/keep-secrets-chords.htm
Привет, Гость.
Предлагаем пройти революционный курс по гитаре.
Подарок от PrimaNota.Ru, забирай!