PrimaNota.ru - самый крупный в мире бесплатный архив песенных текстов, аккордов, табулатур и нот


Santo And Johnny - Summertime - таба, видео

Регистрация Запомнить меня
Войти через:  Facebook Google Twitter Vk Yandex Mail.ru

Santo And Johnny - Summertime - таба, видео

Печатать
Просмотров: 124
-------------------------------------------------------------------------------
                           Summertime – Santo and Johnny
-------------------------------------------------------------------------------
Tabbed by: Erik
Email: erik.nmgn@gmail.com

Tuning: Standard (EADGBe)
Half of it was done as a slide-guitar. I'm not at all good at slides so all of 
that has been tabbed out as bends/releases, hammer on/pull offs and casual slides.
pbxry=prebended from y to x, release to y. ^=bend half a step, [t]=tremolopicking
Use: Am(x02010), E7(020130), Dm(xx0231), Dmaug(xx0331), Dmaug+(xx0431), 
F6(133231), C(232010), F(133211)

   Am7          E7 (etc.)
e|-5--8----12---/17-\16\12----------------------------|
B|-55-1010-1313--------------15b16-15b16-15b16r15p13--|
G|-5--9----14-----------------------------------------|
D|----------------------------------------------------|
A|----------------------------------------------------|
E|----------------------------------------------------|
                                      (slide guitar does the 9, 15 is easier)
e|---------------------------------------------------------------------------|
B|-15b16-15b16-15b16r15p13-15b16-15b16-15b16r15p13\--------------------------|
G|-------------------------------------------------(9)13b14r13---------------|
D|-------------------------------------------------(15)----------------7-----|
A|-------------------------------------------------------------------7-------|
E|---------------------------------------------------------------------------|

e|----------------------------12---12---|
B|--------------------------------------|
G|-8b9—8b9-9-7—-7/9--------------9----9-|
D|----10------10---pb10r9p7-------------|
A|-------------------------7------------|
E|--------------------------------------|
   Dm Dmaug Dmaug+ Dmaug Dm         E7      F6      E7
e|----------------------------------0-0-0-0-0-0-0-0--0--0--0--0--|
B|----------------------------------5^5^5^5/9-9-9/14-14-14-14-14-|
G|-7b9r7p5-7-7-7-------------------------------------------------|
D|---------------10\7-10-7-9b10-9--------------------------------|
A|---------------------------------------------------------------|
E|---------------------------------------------------------------|
            Am7         E7 (etc.)
e|-12-12-12-pb12r11b12~------------------------------------------------------|
B|---------------------------pb15r13b15/pb17r15--13--------------------------|
G|-----------------------(16)--------------------14—pb14r12----13------------|
D|---------------------------------------------------------14----13----------|
A|---------------------------------------------------------------------------|
E|---------------------------------------------------------------------------|
                   C                     F         E
e|--------------------------------------------------|
B|----10---10----------------------------15b17r15---|
G|-8b9---8----8----------12-----12-14/17------------|
D|-----------------12b14-----14---------------------|
A|--------------------------------------------------|
E|--------------------------------------------------|
      Am7            E7 (etc.)
e|----16^--------------------------16^------------------------------|
B|-13----16^16^16^16^15h17p15---------16^16^16^16-15/16\13----13----|
G|-14------------------------16^----------------------------14------|
D|--------------------------------------------------------------14--|
A|------------------------------------------------------------------|
E|------------------------------------------------------------------|

e|-12---12---12---12---12---12---12---12----12---|
B|-----------------------------0----0----12------|
G|----9----9----9----9----9---------9----------9-|
D|-----------------------------------------------|
A|-----------------------------------------------|
E|-----------------------------------------------|

e|----------------------------------5--8----12---16^16^~-|
B|-17-17-17~--15-13-15b17--13-------55-1010-1313---------|
G|---------------------------14-----5--9----14-----------|
D|-----------------------------14------------------------|
A|-------------------------------------------------------|
E|-------------------------------------------------------|
         Dm Dmaug Dmaug+ Dmaug Dm E7      F6   E7       Am7      E7 (etc.)   
e|-12-8--10----------------------------------------------------15[t]b16-17\12|
B|---------------13----13----13\12--12-12-12-12-------121315-17--------------|
G|---------------14-14----14--------13-13-13-13-----14-----------------------|
D|-14-10-12-------------------------14-14-14-14---14-------------------------|
A|---------------------------------------------------------------------------|
E|---------------------------------------------------------------------------|
                                   C                F   E
e|-12-12-11\10-------------------------------------------|
B|-------------------------------------------------------|
G|--------------13~b14—(13b14)-------12---12-14/17/21\19-|
D|------------------------------12b14---14---------------|
A|-------------------------------------------------------|
E|-------------------------------------------------------|
     Am7         E7 (etc.)
e|------12---pb17r16-pb12r11~-11-10^10----------------------0----------------|
B|-13-----13---------------------------13-------------------1----------------|
G|---14-----------------------------------------14----14----2----------------|
D|-----------------------------------------13/14—13/14------2----------------|
A|----------------------------------------------------------0----------------|
E|---------------------------------------------------------------------------|

************************************

| /   slide up
| \   slide down
| h   hammer-on
| p   pull-off
| ~   vibrato
| +   harmonic
| x   Mute note
| b   Bend
| pb  Pre-bend
| br  Bend release
| pbr Pre-bend release
| brb Bend release bend

************************************
Добавлено: 19.05.2012
Другие материалы по этой песне:
  • Аккорды и текст

Страница создана 19.05.2012
http://primanota.ru/santo-and-johnny/summertime-chords.htm
Привет, Гость.
Предлагаем пройти революционный курс по гитаре.
Подарок от PrimaNota.Ru, забирай!