PrimaNota.ru - самый крупный в мире бесплатный архив песенных текстов, аккордов, табулатур и нот


Santigold - You'll Find A Way - текст песни, бас-таба, видео

Регистрация Запомнить меня
Войти через:  Facebook Google Twitter Vk Yandex Mail.ru

Santigold - You'll Find A Way - текст песни, бас-таба, видео

Печатать
Просмотров: 38
Artist: Santigold
Song: You'll Find A Way
Tabber: Teodosio Di Genio (@TeodosioDiG on Twitter)


Bass Tab

VERSE:


G-------------------------------------------------------------------------------
D---------6/7-7-7-6-------6/7-7-7-6-------6/7-7-7-6-------6/7-7-7-6-------------
A----4-4-------------4-4-------------4-4-------------7-7------------------------
E-------------------------------------------------------------------------------




G-------------------------------------------------------------------------------
D---------6/7-7-7-6-------6/7-7-7-6-------6/7-7-7-6-------7-7-7-6-6-------------
A----4-4-------------4-4-------------4-4-------------7-7-------------7----4-4---
E-------------------------------------------------------------------------------  [...]


CHORUS:


G-------------------------------------------------------------------------
D-------------------------------------------------------------------------
A----4-4---4-4-4----4-4---4-4-4-------------------------------------------
E----------------------------------0-0---0-0-0-------7-7---7-7-7----------


SEE YOU!
Добавлено: 21.03.2016
Вам также может быть интересно:
Другие материалы по этой песне:
  • Аккорды и текст

Страница создана 18.08.2014
http://primanota.ru/santigold/youll-find-a-way-chords.htm
Привет, Гость.
Предлагаем пройти революционный курс по гитаре.
Подарок от PrimaNota.Ru, забирай!