PrimaNota.ru - самый крупный в мире бесплатный архив песенных текстов, аккордов, табулатур и нот


Santaflow - Sangre En La Arena - таба, видео

Регистрация Запомнить меня
Войти через:  Facebook Google Twitter Vk Yandex Mail.ru

Santaflow - Sangre En La Arena - таба, видео

Печатать
Просмотров: 32
-------------------------------------------------------------------------------
                            SANTAFLOW - SANGRE EN LA ARENA
-------------------------------------------------------------------------------
Tabs por: Iván García
AFINACIÓN: MI (ESTANDAR)

************************************
| /   slide up
| \   slide down
| h   hammer-on
| p   pull-off
| ~   vibrato
| +   harmonic
| x   Mute note
| b   Bend
| pb  Pre-bend
| br  Bend release
| pbr Pre-bend release
| brb Bend release bend

************************************

El Riff principal/intro 

e|--------------------------------------------------------------------------------------|
B|--------------------------------------------------------------------------------------|
G|--------------------------------------------------------------------------------------|
D|-2-3-5-7-7-7-x-x-x-x--2-3-5-7-7-7-x-x-x-x--2-3-5-2-2-2-x-x-x-x--3-3-3-2-2-2-x-x-x-x---|
A|-2-3-5-7-7-7-x-x-x-x--2-3-5-7-7-7-x-x-x-x--2-3-5-2-2-2-x-x-x-x--3-3-3-2-2-2-x-x-x-x---|
E|-0-1-3-5-5-5-x-x-x-x--0-1-3-5-5-5-x-x-x-x--0-1-3-0-0-0-x-x-x-x--1-1-1-0-0-0-x-x-x-x---|


En la siguiente parte la canción presenta algunas variaciones pero la base es esta

e|---------------------------------------------------------------------------|
B|---------------------------------------------------------------------------|
G|---------------------------------------------------------------------------|
D|-7-----5-7-----5----------------5------------------------------------------|
A|---7-8-----7-8---7-8-8-8-7--7-8--------------------------------------------|
E|---------------------------------------------------------------------------|

                              ----SOLO----

e|---------------------------------------------------------------------------|
B|---------------------------------------------------------------------------|
G|--7/9-7-9-10--10-9-7----------------------7---------------7/9--------------|
D|---------------------10-9-7-6-7-9--7-9-10---9--6-7-9-10-6------------------|
A|---------------------------------------------------------------------------|
E|---------------------------------------------------------------------------|

e|--------12-----------------12----------------------------------------------|
B|--10-10------------9-10-10-------------10*---------------------------------|
G|-----------9-10-12-------------9-10-12----12-10-9/13-----------------------|
D|---------------------------------------------------------------------------|
A|---------------------------------------------------------------------------|
E|---------------------------------------------------------------------------|
Добавлено: 22.12.2015
Вам также может быть интересно:
Другие материалы по этой песне:
  • Аккорды и текст

Страница создана 22.12.2015
http://primanota.ru/santaflow/sangre-en-la-arena-chords.htm
Привет, Гость.
Предлагаем пройти революционный курс по гитаре.
Подарок от PrimaNota.Ru, забирай!