PrimaNota.ru - самый крупный в мире бесплатный архив песенных текстов, аккордов, табулатур и нот


Santa Fe And The Fat City Horns - Wishing Well - бас-таба, видео

Регистрация Запомнить меня
Войти через:  Facebook Google Twitter Vk Yandex Mail.ru

Santa Fe And The Fat City Horns - Wishing Well - бас-таба, видео

Печатать
Просмотров: 30
Santa Fe & The Fat City Horns - Wishing Well.tef
Michael Ruff
TablEdited by David Walden
Standard Tuning
Q = 63
4/4


 1 2 3 4            S S 5        S         S S    6                      7               S      8                             
G|-|-|-|----------------|-------------------------|----------------------|----------------------|----------------------------|
D|-|-|-|------------8-8-|--------10--------8-10---|----------------------|---------------8------|----------------------------|
A|-|-|-|-8-10-10-10-----|---8-10------8-10--------|-8-10-----8-10-10-----|---8-10---8-10---8----|---8-10-------------10-8----|
E|-|-|-|----------------|-8---------8-----------8-|------8-8---------8-8-|-8------8----------11-|-8------6-8-8-10-11------10-|
         S S  S  S        S S S     S S S       S   S S  S S S S  S  S S   E S Q  E S S    S S    E S E  S S S E  S  S  E S   
 
9                      10                      11       S         S S    12                  S S S 13                      
|----------------------|-----------------------|-------------------------|-------------------------|----------------------|
|----------------------|-----------------------|--------10--------8-10---|-------------------8-5-5-|----------------------|
|-8-----8-----8-8/12/8-|-8-----7-8-6-----6-----|---8-10------8-10--------|---10-10-------7-5-------|------10------10------|
|---6-8---6-8----------|---6-8-------6-7---8-8-|-8---------8-----------8-|-8-------7-8-8-----------|-8-10----8-10----8-10-|
  E S E E S E T T S  S   E S E S S S E S S S S   S S S     S S S       S   S S  S  S S S E S         S S  S  S S  S  S S   
 
14                   15              S    16                           17                E E   18                    S S   
|--------------------|--------------------|----------------------------|-------------------8---|--------------------------|
|--------------------|---------------10---|----------------------------|-----------------8-----|---------------------8-10-|
|-8-----8-9-10-------|---8-10---8-10------|---7---8---9---10-------1-3-|---X-10-----8-10-------|---8-10---8-8-0-10-0------|
|---6-8--------6-7-8-|-8------8---------8-|-8---8---8---0----3-3-3-----|-8/-----6-8----------8-|-8------8-----------------|
  S S S E S S  S S S   S S S  S E S     S   S S S S S E E E  S E E S S   Q S S  S S S S      S   E S Q  S S S T S  S       
 
19            S    S 20  S                           21                22          E           23                     
|--------------------|-------------------------------|-----------------|-----------------------|---------------------|
|-------------8----8-|---10--------------------------|-----------------|-----------3-----------|---------------------|
|-8-10---8-10---10---|------8-10-------------10-8----|-8-----------6---|-8-------------1-2-3-3-|---8-10---10-10-10---|
|------8-------------|-8---------8-8-8-10-11------11-|---6-8-1-6-8---4-|---6-8-0-1---3---------|-8------8----------8-|
  S S  S S S    S      S    S E. S S S E  S  S  S S    E S S S S S S S   E S T S S   E S S S S   S S S  S S  S  S  S  
 
24  S  E                              25            E       26S                     27                  S         
|-------------------------------------|---------------------|-----------------------|----------------------------|
|---10-8------------------------------|-------------0-------|-3---------------------|-------------------8--------|
|--------8-8-9-10------7---7(7)8-9-10-|-10--------2-----3---|---1-3-----1-1-2-3-3-3-|---8-10-------8h10---8h10---|
|-8---------------8-10---8------------|----8-10-3-----3---1-|-------0-1-------------|-8------8-8-8-------------8-|
  S      T T S T  T S  E S E S S S S    E  S E  E S   E E S     S S S S S S S S S S   E S E  S T S T T    T T  S  
 
28                   29               S S S  30            S S S S S 31            S T S S S S 32            S       S  S S   
|--------------------|-----------------------|---------------------5-|-----------------------5-|-------------10------10-8----|
|--------------------|----------------8-9-10-|-------------5-5-7-5---|-------------5-X-5-7-5---|--------------------------10-|
|-----7---8---9---10-|-6-7-8-8-9-9-10--------|-X-5-6-7-7-8-----------|-X-5-6-7-7-8-------------|-X-5-6-7-7-8----9-10---------|
|-8-8---8---8---8----|-----------------------|-----------------------|-------------------------|-----------------------------|
  S S S S S S S S H    S S S S S S S           T S S E S S             T S S E S S               T S S E S S    E S           
 
33                S    S 34  S                 S      35                 36S       S         S S  S  37              S S S   
|------------------------|----------------------------|------------------|---------------------------|----------------------|
|-----------------8----8-|---10----------------8------|------------------|-10------10--------8-10-10-|---------------8-9-10-|
|-----8-10---8-10---10---|------8-10-----7---8---10---|-8-10---8-10---10-|----8-10----8-8-10---------|---8-10---8-10--------|
|-8(8)-----8-------------|-8---------6-8---8--------8-|------8------8----|---------------------------|-8------8-------------|
  S S S Q  E S S    S      S    S S  S S S S S   S  S   S E  E S E  E S       S S     S S S            S S S  S S S          
 
38                         39              S   40               S S S  41  S              S S S  42                   S       
|--------------------------|-------------------|-----------------------|-------------------------|---------------------------|
|--------------------------|---------------6---|----------------8-9-10-|---10-------------8-9-10-|--------------------8------|
|---8-10-----------10----8-|-8-----8-----6---8-|-8-----6-8-9-10--------|------8-10---8-10--------|---8-10-------7---8---8-10-|
|-8------8-8-10-11----11---|---6-8---6-8-------|---6-8-----------------|-8---------8-------------|-8------8-8-8---8----------|
  S S S  S S S  S  S  S  S   S S S S S S S   S   S S S S S S S           S    S S  S S S           S S S  S S S S S S   S S   
 
43                           44                               45     S S       S    S S  46       S    S S                       
|----------------------------|--------------------------------|---------------------8----|--------------------------------------|
|----------------------------|--------------------------------|------8-10------8------10-|--------8----8-10---------------------|
|-10------10-10------10------|-8-------6---8-6-8-6-8/10/6-----|---10--------10---10------|-----10---10------10-10-10-10-10-10---|
|----8-10-------8-10----8-10-|---6-8-8---8----------------8-8-|-8---------8--------------|-8-8--------------------------------8-|
  S  S S  S  S  S S  S  S S    S S S S S S S S S S T T  T S S   S S       E S    S         S E S    S       S  S  S  S  S  S  S  
 
47                 S S S  48                 T S  E S  49               S S S  50          E       S S S   
|-------------------------|-----------------------8----|-----------------------|-----------10-------------|
|------------------8-9-10-|------------------8h10---10/|----------------8-9-10-|-------------------8-9-10-|
|-5-5-6-7-7-8-9-10--------|-X-5-6-7-7-8-9-10-----------|-5-6-7-7-8-9-10--------|-5-6-7-7-8----9-10--------|
|-------------------------|----------------------------|-----------------------|--------------------------|
  T S S S S S S S           T S S S S S S S              S S S S S S S           S S S S S    E S          
 
51               S S S  52                            53E                  S S S  54                  S    T T   
|-----------------------|-----------------------------|---------------------------|-----------------------------|
|----------------8-9-10-|-----------------------------|-10-----------------8-9-10-|-------------------8----8h10-|
|-5-6-7-7-8-9-10--------|-5-5-6-7-7-8-10-10-10-8------|----5-6-7-7-8-10-10--------|-X-5-6-7-7-8-10-10---10------|
|-----------------------|------------------------10-8/|---------------------------|-----------------------------|
  S S S S S E S           T S S S S S E  S  T  E T  S      S S S S S E  S           T S S S S S E  S    S        
 
55           S S S  56       S      S    S S S  57              S S S  58                 S     59S              S    
|-------------------|---------------------------|-----------------8----|------------------------|-10-----------------|
|------------8-9-10-|--------10-----8----8-9-10-|---------------8---10-|------------------5-----|----------------6---|
|-------8-10--------|---8-10----7-8---10--------|---8-10---8-10--------|---8-10-------5-6---6-8-|--------8-----6---8-|
|-8/3-8-------------|-8-------------------------|-8------8-------------|-8------6-8-8-----------|----6-8---6-8-------|
  Q Q E S S           S S S     E E   E           E S S  S S S           E S S  S S S S S   S S      S Q S S S S   S  
 
60            S S S S  61              S S S  62                 S    63              S    64             S    S   
|----------------------|----------------------|-----------------------|--------------------|----------------------|
|-------------6-8-9-10-|---------------8-9-10-|------------------7----|---------------10---|--------------8----10-|
|-8-----6-8-9----------|---8-10---8-10--------|---8-10-------8-----10-|-10----------8----7-|-8-----8-9-10---11----|
|---6-8----------------|-8------8-------------|-8------6-8-8---8------|----8-10-3-7--------|---6-8----------------|
  S S S S S S            S S S  S S S           S S S  S S S E E   S    E  S E  S S S    S   E S E S S S    S      
 
65  S              S S S  66      S   S   S   S         67              S    S 68  S       S S        S       
|-------------------------|-----------------------------|----------------------|-----------------------------|
|---10-------------8-9-10-|-------8---7---6---5---------|---------------8----8-|---10------8-8--------8------|
|------8-10---8-10--------|-----------------------1-2-3-|---8-10---8-10---10---|------8-10-----10-7-8---10---|
|-8---------8-------------|-X-8-6---5---4---3---3-------|-8/-----8-------------|-8-------------------------8-|
  S    S S  S S S           T S S   S   S   S   S S S S   S S S  S S S    S      S    S S      S  E S   S  S  
 
69  S               T S S S  70S       S S        S     71              S   72        S       S S S  73              S S S   
|-----------------------8----|--------------------------|-------------------|---------10-------------|----------------------|
|---10--------------8-X---10-|-10------8-10-------5-----|---------------6---|-----------------8-9-10-|---------------8-8-10-|
|------8-10---10-10----------|----8-10------8-5-6---7-8-|-8-----8-----6---6-|-8-----8----9-10--------|---8-10---8-10--------|
|-8---------8----------------|--------------------------|---6-8---6-8-------|---6-8------------------|-8------8-------------|
  S    S S  E S  S                S S       S S S   S S   S S S S S S S   S   E S E S    E S           E S E  E S E          
 
74                   E    75           S    S   76                         77     S Q     E    E S  78       S Q                       S   
|-------------------------|---------------------|--------------------------|-------------------8----|-------------------------------------|
|--------------------7----|------------8----8---|--------------------------|------8-10----8------10-|--------8-10----------------------10-|
|---8-10---------7-8---10-|-10------10---10---8-|-8-----8-6-8-6-8/10/6-----|---10------10---10------|-----10------10-10-10-10-10-10-10----|
|-8------6-6-8-8----------|----8-10-------------|---6-8----------------8-8-|-8----------------------|-8-8---------------------------------|
  E S E  T T S E E S   E    E  S E  E    S    S   E S Q S S S S T T  S S S   Q Q       E    E         S S Q       S  S  S  S  S  S  E      
 
7980818283848586             S S  87E                  S S S  88                  T  T  S S  89E                  S S S   
|-|-|-|-|-|-|-|-------------------|---------------------------|-------------------10-10-8----|---------------------------|
|-|-|-|-|-|-|-|--------------8-10-|-10/----------------8-9-10-|---------------------------10-|-10/----------------8-9-10-|
|-|-|-|-|-|-|-|-8-8-8-8-8-10------|----5-6-7-7-8-10-10--------|-X-5-6-7-7-8-10-10------------|----5-6-7-7-8-10-10--------|
|-|-|-|-|-|-|-|-------------------|---------------------------|------------------------------|---------------------------|
                S S S S S S            S S S S S S  S           T S S S S S E  S                  S S S S S E  S          
 
90                  T  T  S S  91E                  S S S  92        T     E       S S S  93          E       S S S   
|-------------------10-10-8----|---------------------------|---------9-----10-------------|-----------10-------------|
|---------------------------10-|-10/----------------8-9-10-|-----------------------8-9-10-|-------------------8-9-10-|
|-X-5-6-7-7-8-10-10------------|----5-6-7-7-8-10-10--------|-X-5-6-7---7-8----9-10--------|-5-6-7-7-8----9-10--------|
|------------------------------|---------------------------|------------------------------|--------------------------|
  T S S S S S E  S                  S S S S S E  S           T S S S   S S    E S           S S S S S    E S          
 
94                  S        
|---------------------------|
|-------------------5-------|
|---5-6-7-7-8-7-8-7---6-----|
|-8---------------------8-8-|
  S S S S S S S S S   S S S  
 
Duration Legend
---------------
W - whole
H - half
Q - quarter
E - 8th
S - 16th
T - 32nd
X - 64th
(#) note tied to previous
. - note dotted

Tablature Legend
----------------
h - hammer-on
/ - slide
X - dead note

Created with TablEdit http://www.tabledit.com/
Добавлено: 07.11.2015
Другие материалы по этой песне:
  • Аккорды и текст

Страница создана 07.11.2015
http://primanota.ru/santa-fe-and-fat-city-horns/wishing-well-chords.htm
Привет, Гость.
Предлагаем пройти революционный курс по гитаре.
Подарок от PrimaNota.Ru, забирай!