PrimaNota.ru - самый крупный в мире бесплатный архив песенных текстов, аккордов, табулатур и нот


Santa Cruz - Nothing Compares To You - таба, видео

Регистрация Запомнить меня
Войти через:  Facebook Google Twitter Vk Yandex Mail.ru

Santa Cruz - Nothing Compares To You - таба, видео

Печатать
Просмотров: 184
-------------------------------------------------------------------------------
             Santa Cruz - Nothing Compares To You Archie Solo #2
-------------------------------------------------------------------------------


Tuning: Half-Step Down
Intro rhythm plays chords D C G D
Lead:
e|---------------------------------------------------/17-15-14~--------------|
B|-------/19~-19b20-19~-19\17-17~-17b18-17~-17\15-15~------------------------|
G|---/--------------------------------------------------------------/-\------|
D|---/--------------------------------------------------------------/--------|
A|---------------------------------------------------------------------------|
E|---------------------------------------------------------------------------|
Verse: You're playing 2 chords D & G alternately
Pre-chorus: D C A# C G x2
Chorus: I have no idea :(
Solo Archie 1: I have no idea :(
Solo Archie 2:
e|----------------------------------------------------15---------------------|
B|-----------------/-8-8-----------8-10b11b10p8h10b12----10b12b10p8~---------|
G|-----------------/-7-7-9-7-9~-/9-------------------------------------------|
D|---5-5-5-5-----------------------------------------------------------------|
A|-----------7-5-7~----------------------------------------------------------|
E|---------------------------------------------------------------------------|
                                                                  
e|-/15-15-15\14-14-14-14-14\12-12-12-12\10-10-10-10--------------------------|
B|--------------------------------------------------14b15-14-----------------|
G|---------------------------------------------------------------------------|
A|---------------------------------------------------------------------------|
E|---------------------------------------------------------------------------|
  PM|.................................|
e|--------------------------------------------------------------12-14-15-x2-15/17b19-|
B|--------------------------------------------------12-14-15-x2----------------------|
G|--------------------------------------13-14-15-x2----------------------------------|
D|--------------------------13-14-15-x2----------------------------------------------|
A|--------------12-13-15-x2----------------------------------------------------------|
E|---12-13-15-x2---------------------------------------------------------------------|

e|-17b19-17b19b17p15-17b19holdt20p19t22p19-17b19b17p15-17b19holdt20p19t20p19t20p19b17p15~~--|
B|------------------------------------------------------------------------------------------|
G|------------------------------------------------------------------------------------------|
D|------------------------------------------------------------------------------------------|
A|------------------------------------------------------------------------------------------|
E|------------------------------------------------------------------------------------------|

e|-20-20-20\19-19-19-19\17-17-17-17\15-15-15-15\12------------------14tr15tr17tr19tr19b20---|
B|--------------------------------------------------------------\17-------------------------|
G|-------------------------------------------------16b18b16-14~-----------------------------|
D|------------------------------------------------------------------------------------------|
A|------------------------------------------------------------------------------------------|
E|------------------------------------------------------------------------------------------|

And then there's Johnny epic solo :)
I hope you enjoy my tabs :)


************************************

| /   slide up
| \   slide down
| h   hammer-on
| p   pull-off
| t   tapping
| tr  tremolo picking
| ~   vibrato
| +   harmonic
| x   Mute note
| b   Bend
| pb  Pre-bend
| br  Bend release
| pbr Pre-bend release
| brb Bend release bend

************************************
Добавлено: 26.12.2015
Другие материалы по этой песне:
  • Аккорды и текст

Страница создана 26.12.2015
http://primanota.ru/santa-cruz/nothing-compares-to-you-chords.htm
Привет, Гость.
Предлагаем пройти революционный курс по гитаре.
Подарок от PrimaNota.Ru, забирай!