PrimaNota.ru - самый крупный в мире бесплатный архив песенных текстов, аккордов, табулатур и нот


Santa Cruz - My Remedy - таба, видео

Регистрация Запомнить меня
Войти через:  Facebook Google Twitter Vk Yandex Mail.ru

Santa Cruz - My Remedy - таба, видео

Печатать
Просмотров: 161
-------------------------------------------------------------------------------
                             My Remedy - Santa Cruz
-------------------------------------------------------------------------------
Tabbed by: ArskaFromJVC
E-mail: ardemort@gmail.com

Tuning:DADGHe

e|--------------19---------------------------19------------------------------|
B|-21-19-21-xxx----19-21-19-xxx-21-19-21-xxx----19-21-19---------------------|
G|-------------------------------------------------------19~~----------------|
D|---------------------------------------------------------------------------|X3
A|---------------------------------------------------------------------------|
D|---------------------------------------------------------------------------|
  
RIFF1
e|---------------------------------------------------------------------------|
B|---------------------------------------------------------------------------|
G|---------------------------------------------------------------------------|
D|-4-2-4---7--2-4-2-4--------4-2-4---7--2-4-2-4--0--2~~----------------------|
A|-4-2-4---7--2-4-2-4--------4-2-4---7--2-4-2-4--0--2~~----------------------|
D|-4-2-4---7--2-4-2-4--xxxx--4-2-4---7--2-4-2-4--0--2~~----------------------|


e|-9-9-9-9-9-9/-21-21-21-21-21-21-|    |-8-8-8-8-8-8/-20-20-20-20-20-20------|
B|--------------------------------|    |-------------------------------------|   
G|--------------------------------|    |-------------------------------------|
D|--------------------------------|X2  |-------------------------------------|X2
A|--------------------------------|    |-------------------------------------|
E|--------------------------------|    |-------------------------------------|


e|-7-7-7-7-7-7/-19-19-19-19-19-19-|
B|--------------------------------|
G|--------------------------------|
D|--------------------------------|X2
A|--------------------------------|
E|--------------------------------|

e|-5-5-5-5-5-5/-15-15-15-15-15-15-|     |-15^-15^-13~~|
B|--------------------------------|     |-------------|
G|--------------------------------|     |-------------|
D|--------------------------------|X2   |-------------|
A|--------------------------------|     |-------------|
E|--------------------------------|     |-------------|

e|---------------------------------------------------------------------------|
B|---------------------------------------------------------------------------|
G|---------------------------------------------------------------------------|
D|-4-2-4----4-2-4----2----4-2-4----4-2-4-2-4----0~-------2~------------------|
A|-4-2-4----4-2-4----2----4-2-4----4-0-4-2-4----0~-------2~------------------|
E|-4-2-4----4-2-4----2----4-2-4----4---4-2-4----0~-------2~------------------|

RIFF 2
e|---------------------------------------------------------------------------|
B|---------------------------------------------------------------------------|
G|-------------2--------------------------------------2----------------------|
D|-4-2-4xxxx---2-4-2-4-2-4xxxx----2----4-2-4xxxx----4-2-4-2-4----0~-------2~-|
A|-4-2-4xxxx---0-4-2-4-2-4xxxx----2----4-2-4xxxx----4-0-4-2-4----0~-------2~-|
E|-4-2-4xxxx-----4-2-4-2-4xxxx----2----4-2-4xxxx----4---4-2-4----0~-------2~-|

e|---------------------------------------------------------------------------|
B|-----3------3------3------3-----------------1/----------------------------|
G|-----2------2------2------2-----2---2---2---0/----------------------------|
D|-x-x-0--x-x-0--x-x-0--x-x-0-----2---2---2----------------------------------|
A|--------------------------------0---0---0----------------------------------|
E|---------------------------------------------------------------------------|

To Be Continued...

e|---------------------------------------------------------------------------|
B|---------------------------------------------------------------------------|
G|---------------------------------------------------------------------------|
D|---------------------------------------------------------------------------|
A|---------------------------------------------------------------------------|
E|---------------------------------------------------------------------------|
************************************

| /   slide up
| \   slide down
| h   hammer-on
| p   pull-off
| ~   vibrato
| +   harmonic
| x   Mute note
| b   Bend
| pb  Pre-bend
| br  Bend release
| pbr Pre-bend release
| brb Bend release bend

************************************
Добавлено: 21.04.2016
Другие материалы по этой песне:
  • Аккорды и текст

Страница создана 21.04.2016
http://primanota.ru/santa-cruz/my-remedy-chords.htm
Привет, Гость.
Предлагаем пройти революционный курс по гитаре.
Подарок от PrimaNota.Ru, забирай!