PrimaNota.ru - самый крупный в мире бесплатный архив песенных текстов, аккордов, табулатур и нот


Sandy Nelson - Drums A Go Go - таба, видео

Регистрация Запомнить меня
Войти через:  Facebook Google Twitter Vk Yandex Mail.ru

Sandy Nelson - Drums A Go Go - таба, видео

Печатать
Просмотров: 276
Уроки эстрадного вокала в Санкт-Петербурге
Author: Sandy Nelson

Title: Drums a go go

Guitar Tab by Fepo
Tuning: Standard E A D G B E

Listen to the song and you know how to play  :)

Have Fun

Here i played this Song on my Youtube Channel: 

http://www.youtube.com/watch?v=4RnQriZcZVk&feature=plcp


e|---------------------------------------------------------|
B|---------------------------------------------------------|
G|-----7~~~--10--7-------7~~~--10  7-----------------------|
D|--7-----------------7------------------------------------|
A|---------------------------------------------------------|
E|---------------------------------------------------------|


e|---------------------------------------------------------|
B|---------8—9~~~--8---------------------------------------|
G|--7--10-------------10—7----------6----------------------|
D|---------------------------------------------------------|
A|---------------------------------------------------------|
E|---------------------------------------------------------|


e|---------------------------------------------------------|
B|---------------------------------------------------------|
G|-----6~~~--9--6--------6~~~--9--6------------------------|
D|--6-----------------6------------------------------------|
A|---------------------------------------------------------|
E|---------------------------------------------------------|


e|---------------------------------------------------------|
B|--------7—8~~~--7----------------------------------------|
G|--6--9------------9--6------------5----------------------|
D|---------------------------------------------------------|
A|---------------------------------------------------------|
E|---------------------------------------------------------|

e|---------------------------------------------------------|
B|---------------------------------------------------------|
G|--4-5-4-5-4-5-4-5----4-5-4-5-4-5-4-5---------------------|
D|---------------------------------------------------------|
A|---------------------------------------------------------|
E|---------------------------------------------------------|


e|---------------------------------------------------------|
B|--5-6-5-6-5-6-5-6----------------------------------------|
G|-------------------4-5-4-5-4-5-4-5-----------------------|
D|---------------------------------------------------------|
A|---------------------------------------------------------|
E|---------------------------------------------------------|

e|---------------------------------------------------------|
B|--7-8-7-8----5-6-5-6-------------------------------------|
G|----------------------4-5-4-5-4-5-4-5------5-------------|
D|---------------------------------------------------------|
A|---------------------------------------------------------|
E|---------------------------------------------------------|

e|---------------------------------------------------------|
B|---------------------------------------------------------|
G|-----7~~~--10--7-------7~~~--10  7-----------------------|
D|--7-----------------7------------------------------------|
A|---------------------------------------------------------|
E|---------------------------------------------------------|


e|---------------------------------------------------------|
B|---------8—9~~~--8---------------------------------------|
G|--7--10-------------10—7---------------------------------|
D|---------------------------------------------------------|
A|---------------------------------------------------------|
E|---------------------------------------------------------|
Добавлено: 24.06.2013
Другие материалы по этой песне:
  • Аккорды и текст

Страница создана 24.06.2013
http://primanota.ru/sandy-nelson/drums-a-go-go-chords.htm
Привет, Гость.
Предлагаем пройти революционный курс по гитаре.
Подарок от PrimaNota.Ru, забирай!