PrimaNota.ru - самый крупный в мире бесплатный архив песенных текстов, аккордов, табулатур и нот


Sandy Bull - Blend - таба, видео

Регистрация Запомнить меня
Войти через:  Facebook Google Twitter Vk Yandex Mail.ru

Sandy Bull - Blend - таба, видео

Печатать
Просмотров: 56
-------------------------------------------------------------------------------
                             Blend - Sandy Bull
-------------------------------------------------------------------------------
Tabbed by:viper1203
E-mail:gaboonviper1203@yahoo.com

Tuning:Drop B

e|---------------------------------------------------------------------------|
B|---------------------------------------------------------------------------|
G|---------------------------------------------------------------------------|
D|---------------------------------------------------------------------------|
A|----------0-----2-----4-----5-----4-----2-----------------------0------2---|
B|---7--------------------------------------------7-------7------------------|

e|---------------------------------------------------------------------------|
B|---------------------------------------------------------------------------|
G|---------------------------------------------------------------------------|
D|---------------------------------------------------------------------------|
A|---4------5-----5-----4----5/7---5------4-------5-------4-------5p4h5p4----|
B|---------------------------------------------------------------------------|

e|---------------------------------------------------------------------------|
B|---------------------------------------------------------------------------|
G|---------------------------------------------------------------------------|
D|---------------------------------2-----2-------0--------2-------2----------|
A|--2------0------2-----------2----------------------------------------------|
B|----------------------0-----------------------------------------------0----|

e|---------------------------------------------------------------------------|
B|---------------------------------------------------------------------------|
G|---------------------------------------------------------------------------|
D|--2------0------2/4---4----------4-----4/7-----7-------6h7p6h7p6------4----|
A|---------------------------------------------------------------------------|
E|----------------------------0----------------------------------------------|

e|---------------------------------------------------------------------------|
B|---------------------------------------------------------------------------|
G|---------------------------------------------------------------------------|
D|--2h4p2h4p2------0----2h4p2------0h2p0-------------------------------------|
A|----------------------------------------------4----------------0-----2-----|
E|-------------------------------------------------------7-------------------|

e|---------------------------------------------------------------------------|
B|---------------------------------------------------------------------0-----|
G|---------------------------------------------------------------3-----------|
D|-------------------------------------------------------4-------------------|
A|--4------5------4------5------7-------5------4-----------------------------|
E|---------------------------------------------------------------------------|

e|---------------------------------------------------------------------------|
B|--0-------------2------3------2-------3------2h3p2p0-----------2-----5-----|
G|---------------------------------------------------------------------------|
D|--------------------------------------------------------4------------------|
A|---------------------------------------------------------------------------|
E|---------0-----------------------------------------------------------------|

e|-------------------------------------6-------7--------------7--------------|
B|--5------3-----5/7----5------7---------------------------------------------|
G|---------------------------------------------------------------------------|
D|---------------------------------------------------------------------------|
A|---------------------------------------------------------------------------|
E|-----------------------------------------------------0---------------------|

e|--5-----7------5-----4------4h5p4p2--------------------------------5/3p2---|
B|-----------------------------------------5------7-----5------3-------------|
G|---------------------------------------------------------------------------|
D|---------------------------------------------------------------------------|
A|---------------------------------------------------------------------------|
E|---------------------------------------------------------------------------|

e|---------------------------------------------------------------------------|
B|--2------------------------2-----3-----2-----------------------------------|
G|-------------2------4-------------------------4------2---------------------|
D|-------4----------------------------------------------------4------0-------|
A|-------------------------------------------------------------------------4-|
B|---------------------------------------------------------------------------|

e|--------------------------------------------------------------------0----2-||
B|----------------------------------------------------0-----2----3-----------||
G|--------------------------------------1------2-----------------------------||
D|---------------------------------4-----------------------------------------||
A|-------0----2------4------5------------------------------------------------||
B|--7------------------------------------------------------------------------||

************************************

| /   slide up
| \   slide down
| h   hammer-on
| p   pull-off
| ~   vibrato
| +   harmonic
| x   Mute note
| b   Bend
| pb  Pre-bend
| br  Bend release
| pbr Pre-bend release
| brb Bend release bend

************************************
Добавлено: 01.09.2013
Другие материалы по этой песне:
  • Аккорды и текст

Страница создана 01.09.2013
http://primanota.ru/sandy-bull/blend-chords.htm
Привет, Гость.
Предлагаем пройти революционный курс по гитаре.
Подарок от PrimaNota.Ru, забирай!