PrimaNota.ru - самый крупный в мире бесплатный архив песенных текстов, аккордов, табулатур и нот


Sandra Bae - Just The Way You Are - таба, видео

Регистрация Запомнить меня
Войти через:  Facebook Google Twitter Vk Yandex Mail.ru

Sandra Bae - Just The Way You Are - таба, видео

Печатать
Просмотров: 256
Уроки эстрадного вокала в Санкт-Петербурге

Title: Just The Way You Are

Artist: Sandra Bae

Arranged by: Sandra Bae

Tabbed by: Ryan R. Gonzales

Location: Rosario, Batangas - Philippines

Band: http://www.youtube.com/watch?v=dY0_cK4tskI

Tuning: Open D - D A F# D A D (Capo on 3rd fret)



         NH      NH    NH    NH    NH    NH      
         Q       E     E     E     E     E   E   
D ||--<>12----<>12------------------------------|
A ||----------------<>12--------<>12------------|
F#||----------------------------------------13--|
D ||--<>12----<>12--------<>12--------<>12------|
A ||--------------------------------------------|
D ||--------------------------------------------|


     NH      NH    NH    NH               NH      NH    NH       NH         
     Q       E     E     Q     Q          Q       E     E  E     E  E   E   
------------------------------------|--<>12----<>12------------------------|
------------------------------------|----------------<>12-----<>12---------|
--<>12------13--<>12----10----13----|----------------------------------13--|
--<>12----<>12--------<>12----12----|-----9-------9--------9--------9------|
------------------------------------|--------------------------------------|
------------------------------------|--------------------------------------|


     NH          NH                   NH      NH    NH        NH          
     Q     E     E   Q     Q          Q       E     E   E     E   E   E   
--------------------------------|--<>12----<>12--------------------------|
--------------------------------|----------------<>12------<>12----------|
--<>12----13--<>12--10----13----|------------------------------------13--|
-----9-----9---------9-----9----|----------------------------------------|
--------------------------------|----10------10--------10--------10------|
--------------------------------|----------------------------------------|


                                    NH      NH    NH       NH         
   E   E   E   E   Q     Q          Q       E     E  E     E  E   E   
-------------------0----------|--<>12----<>12------------------------|
------------------------------|----------------<>12-----<>12---------|
------13------12--------10----|----------------------------------13--|
------------------------------|-----0-------0--------0--------0------|
--10------10------10----10----|--------------------------------------|
------------------------------|--------------------------------------|


               NH              NH                                   
  E   E  E     E   E  E  E     E     E  E   E   S S E  E   E   S S  
----------------------------------|--------------------------------|
----------------------------------|-----0---0-------0--0-------0---|
-----13-----<>12~--L--------------|--------(0)--0---------(0)----0-|
--0------0---------0--0--0--------|--------(0)------------(0)------|
----------------------------<>12--|---------x--------------x-------|
----------------------------------|--0------------0----------------|


  E  S E   S  S S S S  E   E   E     E  E   E   S S E  E   E   S S  
----------------------------------|--------------------------------|
--0----0---0----0---0h-2----------|-----0---0-------0--0-------0---|
-----0----(0)-0-----------(0)--0--|--------(0)--0---------(0)----0-|
----------(0)-------------(0)-----|--------(0)------------(0)------|
-----------x---------------x------|--2------x-----2--------x-------|
--0---------------0---------------|--------------------------------|


  E  S E   S  S S S S  E   E   E     E  E   S  E  S S S  E   E   S S  
----------------------------------|----------------------------------|
--0----0---0----0---0h-2----------|----------------------------------|
-----0----(0)-0-----------(0)--0--|-----0---0h-1--0---0h-1---0-------|
----------(0)-------------(0)-----|--------(0)----0---0-----(0)----0-|
--2--------x------2--------x------|---------x----------------x-------|
----------------------------------|--5--------------5------------5---|


                                                          NH           
  E  E   E   S  S S E  S  E   E     E  S  S  E   E  E     E   E    E   
---------------------------------|------------------------------------|
---------------------------------|---------------------<>12-----------|
---------0---1p-0-1-0--1-(0)--0--|----------(0)--------------(0)--13--|
-----0--(0)--0----0----0-(0)--0--|-----3s-4-(4)--4-----------(0)------|
---------x----------------x------|-----------x----------------x-------|
--5------------------------------|--0---------------0-----------------|


                                 NH                                   
  E   E   E    E   E  E   E      E     E  E   E   S S E  E   E   S S  
------------------------------------|--------------------------------|
------------------------------------|-----0---0-------0--0-------0---|
-----13--(0)--12~--------(0)--------|--------(0)--0---------(0)----0-|
---------(0)-------------(0)--------|--------(0)------------(0)------|
----------x---------------x---<>12--|---------x--------------x-------|
--0----------------0--0-------------|--0------------0----------------|


  E  S E   S  S S S S  E   E   E     E  E   E   S S E  E   E   S S  
----------------------------------|--------------------------------|
--0----0---0----0---0h-2----------|-----0---0-------0--0-------0---|
-----0----(0)-0-----------(0)--0--|--------(0)--0---------(0)----0-|
----------(0)-------------(0)-----|--------(0)------------(0)------|
-----------x---------------x------|--2------x-----2--------x-------|
--0---------------0---------------|--------------------------------|


  E  S E   S  S S S S  E   E   E     E  E   S  E  S S E   E   E  S  
----------------------------------|--------------------------------|
--0----0---0----0---0h-2----------|--------------------------------|
-----0----(0)-0-----------(0)--0--|-----0---0h-1--0---1---0---1--0-|
----------(0)-------------(0)-----|--------(0)----0---0--(0)--0--0-|
--2--------x------2--------x------|---------x-------------x--------|
----------------------------------|--5--------------5--------------|


                                          ^         v   ^     NH 
  S S  E  E   E   E  Q     E      S  Q    E  E  E   E   E     S  
-------------------------------|--------------------------------|
-------------------------------|----------0---------0---0-------|
--L-1s-3-----(0)----------(0)--|----------0---------0---0--<>12-|
--L-0-----0--(0)--0--2-----4---|--3s-4----4---------4---4--<>12-|
--------------x------------x---|----------0--------(0)--0--<>12-|
----5-------------5------------|-----0----0--0--0-------------x-|


                                          ^    ^  v  ^  v  ^    ^    ^  v  
  E  S  E   E  E  E  E   E   S     E  E   E    S  S  S  S  E    E    S  S  
------------------0--2-------4~-|--L--L-----------------------------------|
------------0--0----------------|--------(0)--(0)---(0)---(0)--(0)--(0)---|
--L----(0)--------------(0)-----|---------0----0--0--0--0--0----0----0--0-|
--L----(0)--------------(0)-----|---------0----0--0--0--0--0----0----0--0-|
--L-----x----------------x------|---------x----0--0--0--0--0----x----0--0-|
--------------------------------|--0--0-----------------------------------|


         ^    ^  v                                                
  E  E   E    S  S E  E   E   E     E  E   E   E  E  E    E   E   
-------------------0--2-------4--|-----2-------0-----0h---2---0--|
--------(0)--(0)---0--0-------0--|-----0-------0-----0--------0--|
---------0----0--0-------(0)-----|--------(0)------------(0)-----|
---------0----0--0-------(0)-----|--------(0)------------(0)-----|
---------x----0--0--------x------|--2------x------2-------x------|
--0--0-------------0-------------|-------------------------------|


                                              ^  v  v             
  E  E   E   E  E  E    E   E     E  E   E    S  E  S E   E   E   
----------------0--0h---2---4--|--L--2------------------------5--|
-------------0--0--0--------0--|--L--0--(0)--(0)---------(0)--0--|
--------(0)------------(0)--5--|--L--5--(5)---0----------(5)--5--|
--------(0)------------(0)-----|--------(0)---0--0--0----(0)-----|
--2--2---x--------------x------|---------x----0--0--0-----x------|
----------------------------5--|--5--------------5--5-5-------5--|


                                              NH       NH           
  E  E   E   E  E  S  S  E   E     Q    E     E  E     E   E    E   
--L--4-------0-----0h-2------0--|----------------------------------|
--L--0--(0)--0-----0----(0)--0--|----------<>12-----<>12-----------|
--L--5--(5)--5-----5----(5)--0--|-------0-----------------(0)--13--|
--------(0)-------------(0)-----|-------------------------(0)------|
---------x---------------x------|--------------------------x-------|
-------------5--5---------------|--0-------------0-----------------|


                                           ^    ^  v  ^  v  ^    ^    ^  v  
  E   E    E   E  E  E   E   E      E  E   E    S  S  S  S  E    E    S  S  
-----------0------0--2-------4~--|--L--L-----------------------------------|
----------(0)--0-----------------|--------(0)--(0)---(0)---(0)--(0)--(0)---|
-----12--(12)-----------(0)------|---------0----0--0--0--0--0----0----0--0-|
------------------------(0)------|---------0----0--0--0--0--0----0----0--0-|
-----------x-------------x-------|---------x----0--0--0--0--0----x----0--0-|
--0------------------------------|--0--0-----------------------------------|


         ^    ^  v                                                
  E  E   E    S  S E  E   E   E     E  E   E   E  E  E    E   E   
-------------------0--2-------4--|-----2-------0-----0h---2---0--|
--------(0)--(0)---0--0-------0--|-----0-------0-----0--------0--|
---------0----0--0-------(0)-----|--------(0)------------(0)-----|
---------0----0--0-------(0)-----|--------(0)------------(0)-----|
---------x----0--0--------x------|--2------x------2-------x------|
--0--0-------------0-------------|-------------------------------|


                                              ^  v  v             
  E  E   E   E  E  E    E   E     E  E   E    S  E  S E   E   E   
----------------0--0h---2---4--|--L--2------------------------5--|
-------------0--0--0--------0--|--L--0--(0)--(0)---------(0)--0--|
--------(0)------------(0)--5--|--L--5--(5)---0----------(5)--5--|
--------(0)------------(0)-----|--------(0)---0--0--0----(0)-----|
--2--2---x--------------x------|---------x----0--0--0-----x------|
----------------------------5--|--5--------------5--5-5-------5--|


                                            NH    NH       NH           
  E  E   E   E  E  S  S  E   E     E  E     E     E  E     E   E    E   
--L--4-------0-----0h-2------0--|--------<>12--------------------------|
--L--0--(0)--0-----0----(0)--0--|--------------<>12-----<>12-----------|
--L--5--(5)--5-----5----(5)--0--|-----0-----------------------(0)--13--|
--------(0)-------------(0)-----|-----------------------------(0)------|
---------x---------------x------|------------------------------x-------|
-------------5--5---------------|--0-----------------0-----------------|


  E   E   E   S  E  S  E  Q       E  E   E   S S E  E   E   S S  
-------------------------------|--------------------------------|
--------------8s-9--8s-9--9----|-----0---0-------0--0-------0---|
-----12--(0)--7s-8--7s-8--8----|--------(0)--0---------(0)----0-|
---------(0)--0-----0-----x----|--------(0)------------(0)------|
----------x--------------------|---------x--------------x-------|
--0----------------------------|--0------------0----------------|


  E  S E   S  S S S S  E   E   E     E  E   E   S S E  E   E   S S  
----------------------------------|--------------------------------|
--0----0---0----0---0h-2----------|-----0---0-------0--0-------0---|
-----0----(0)-0-----------(0)--0--|--------(0)--0---------(0)----0-|
----------(0)-------------(0)-----|--------(0)------------(0)------|
-----------x---------------x------|--2------x-----2--------x-------|
--0---------------0---------------|--------------------------------|


  E  S E   S  S S S S  E   E   E     E  E   S  E  S S S  E   E   S S  
----------------------------------|----------------------------------|
--0----0---0----0---0h-2----------|----------------------------------|
-----0----(0)-0-----------(0)--0--|-----0---0h-1--0---0h-1---0-------|
----------(0)-------------(0)-----|--------(0)----0---0-----(0)----0-|
--2--------x------2--------x------|---------x----------------x-------|
----------------------------------|--5--------------5------------5---|


                                          ^       ^    ^      
  E  E   E   S S S E  S  E   E     S S  S S  Q    Q    E  E   
-----------------------------0--|----------------------------|
---------------0---0-----0---5--|----------------------0-----|
--------(0)--5---5----5-(5)--5--|---------0--L---------0-----|
-----0--(0)-------------(0)-----|----3s-4-3s-4----4----4-----|
---------x---------------x------|---------0--L----0----0-----|
--5--------------5--------------|--0--------------0----0--0--|


      v   ^        v                                                    
  E   E   E  E  E  E   E   E     E   E    E    E    E    E    E    E    
-------------------0-------0--|--0-------------------------------------|
------0---0--------0-------0--|--0---4----4----2----2------------------|
------0---0--------0--(0)-----|-----(0)--(0)--(0)--(0)---3----3----1---|
------4---4-----------(0)-----|------2---(2)------------(0)--(0)--(0)--|
-----(0)--x------------x------|-----------x--------------4----x----2---|
--0----------0--0-------------|--0-------------0----0------------------|


   E    E    E   E  E  E   E    E    
--------------------------------0---|
-------------------------------(0)--|
---0----1----3------------(0)-------|
--(0)--(0)--(0)--0-----0--(0)-------|
---0----2----x-------------x--------|
--------------------0---------------|


   E    E    E    S  S  E    E    E    E       E    E    S  S E  E  E   E   E   
---0---------------------------------------|-----------------------------------|
--(0)---4----4----2s-3--2----0----0--------|----------------------------0---0--|
-------(0)--(0)--(0)---(0)--(0)--(0)---1---|---0----1----1s-3----------(0)-----|
--------2---(2)------------------(0)--(0)--|--(0)--(0)--(0)---0-----0--(0)-----|
---2---------x----2-----2----2----x----2---|---2----2----x-------2------x------|
-------------------------------------------|-----------------------------------|


  E  E   S  E  S E  E   E   E     E  E  S  E   E  E  S S  E.   
-------------------------------|-----------0---2-----0-5s-7---|
---------0-----0--------0------|--0--0--2---------------------|
-----0--(0)-0-------0--(0)--0--|----------(0)-----------------|
--------(0)------------(0)-----|----------(0)-----------------|
---------x--------------x------|-----------x------------------|
--5--------------5-------------|------------------5-----------|


  S  E.   E   S  S E   E   E  S  S    E  S S E  E  E  E   E   S  S  
--3s-4----L---2p-0---------2--2s-4-|---------------0--2-------2s-4-|
---------(0)----------(0)----------|---------0--0--0--0-------0--0-|
---------(0)----------(0)----------|---------------0--1--(0)--1s-3-|
---------(0)----------(0)----------|---------------------(0)-------|
----------x------------x-----------|----------------------x--------|
--0----------------0---------------|--0--0-------------------------|


        ^  ^ v ^ v ^  ^  ^ v           ^    ^  v                
  E  E  E  S S S S E  E  S S    E  E   E    S  S E  E   E   E   
--L--L-----------------------|-------------------0--2-------4--|
--L--L--0--0---0---0--0--0---|--------(0)--(0)---0--0-------0--|
--L--L--3--3-3-3-3-3--3--3-3-|---------0----0--0-------(0)-----|
--------0--0-0-0-0-0--0--0-0-|---------0----0--0-------(0)-----|
--------x--0-0-0-0-0--x--0-0-|---------x----0--0--------x------|
--0--0-----------------------|--0--0-------------0-------------|


  E  E   E   E  E  E    E   E     E  E   E   E  E  E    E   E   
-----2-------0-----0h---2---0--|----------------0--0h---2---4--|
-----0-------0-----0--------0--|-------------0--0--0--------0--|
--------(0)------------(0)-----|--------(0)------------(0)--5--|
--------(0)------------(0)-----|--------(0)------------(0)-----|
--2------x------2-------x------|--2--2---x--------------x------|
-------------------------------|----------------------------5--|


              ^  v  v                                              
  E  E   E    S  E  S E   E   E     E  E   E   E  E  S  S  E   E   
--L--2------------------------5--|--L--4-------0-----0h-2------0--|
--L--0--(0)--(0)---------(0)--0--|--L--0--(0)--0-----0----(0)--0--|
--L--5--(5)---0----------(5)--5--|--L--5--(5)--5-----5----(5)--0--|
--------(0)---0--0--0----(0)-----|--------(0)-------------(0)-----|
---------x----0--0--0-----x------|---------x---------------x------|
--5--------------5--5-5-------5--|-------------5--5---------------|


             NH       NH                                             
  Q    E     E  E     E   E    E     E   E    E   E  E  E   E   E    
----------------------------------|------------------0--2-------4~--|
----------<>12-----<>12-----------|---------------0-------------0---|
-------0-----------------(0)--13--|-----12--(12)-----------(0)------|
-------------------------(0)------|----------(0)-----------(0)------|
--------------------------x-------|-----------x-------------x-------|
--0-------------0-----------------|--0------------------------------|


         ^    ^  v  ^  v  ^    ^    ^  v           ^    ^  v                
  E  E   E    S  S  S  S  E    E    S  S    E  E   E    S  S E  E   E   E   
--L--L-----------------------------------|-------------------0--2-------4--|
--L--L--(0)--(0)---(0)---(0)--(0)--(0)---|--------(0)--(0)---0--0-------0--|
---------0----0--0--0--0--0----0----0--0-|---------0----0--0-------(0)-----|
---------0----0--0--0--0--0----0----0--0-|---------0----0--0-------(0)-----|
---------x----0--0--0--0--0----x----0--0-|---------x----0--0--------x------|
--0--0-----------------------------------|--0--0----------------0----------|


  E  E   E   E  E  E    E   E     E  E   E   E  E  E    E   E   
-----2-------0-----0h---2---0--|----------------0--0h---2---4--|
-----0-------0-----0--------0--|-------------0--0--0--------0--|
--------(0)------------(0)-----|--------(0)------------(0)--5--|
--------(0)------------(0)-----|--------(0)------------(0)-----|
--2------x------2-------x------|--2--2---x--------------x------|
-------------------------------|----------------------------5--|


              ^  v  v                                              
  E  E   E    S  E  S E   E   E     E  E   E   E  E  S  S  E   E   
--L--2------------------------5--|--L--4-------0-----0h-2------0--|
--L--0--(0)--(0)---------(0)--0--|--L--0--(0)--0-----0----(0)--0--|
--L--5--(5)---0----------(5)--5--|--L--5--(5)--5-----5----(5)--0--|
--------(0)---0--0--0----(0)-----|--------(0)-------------(0)-----|
---------x----0--0--0-----x------|---------x---------------x------|
--5--------------5--5-5-------5--|-------------5--5---------------|


         ^    ^  v  ^  v  ^    ^    ^  v    PM PM    NH   NH PM    NH PM   NH  
  E  E   E    S  S  S  S  E    E    S  S    E  E     E    E  E     E  E    E   
--L--L-----------------------------------|--------<>12----------<>12--L--<>7--|
--L--L--(0)--(0)---(0)---(0)--(0)--(0)---|--------------<>7-------------------|
---------0----0--0--0--0--0----0----0--0-|-----0------------------------------|
---------0----0--0--0--0--0----0----0--0-|------------------------------------|
---------x----0--0--0--0--0----x----0--0-|------------------------------------|
--0--0-----------------------------------|--0--0-----0----0--0-----0--0----0--|


  PM PM PM PM PM PM PM PM PM PM PM    PM    NH   NH PM    NH PM   NH     
  E  E  E  S  S  S  S  E  E  S  S     E     E    E  E     E  E    E  E   
--L--------------------------------|-----<>12----------<>12--L--<>7--L--|
-----------------------------------|-----------<>7----------------------|
-----------------------------------|------------------------------------|
-----------------------------------|------------------------------------|
-----------------------------------|---------------------------------2--|
--0--0--0--0--0--0--0--0--0--0--0--|--0-----0----0--0-----0--0----0-----|


            NH               v                                     
  E   E     E  E  E   E   S  S  E     E   E   E  E  E  E   E   E   
-----------------------------------|----------------0--2-------4--|
-----------------------------------|----------0--0-------------0--|
-----(0)--<>5--------(0)----(0)----|-----(0)--------------(0)--5--|
-----(0)-------------(0)----(0)----|-----(0)--------------(0)-----|
--2---x-----2--2--2---x---2-----2--|--2---x------2---------x------|
-----------------------------------|---------------------------5--|


              ^  v  v                                              
  E  E   E    S  E  S E   E   E     E  E   E   E  E  S  S  E   E   
--L--2------------------------5--|--L--4-------0-----0h-2------0--|
--L--0--(0)--(0)---------(0)--0--|--L--0--(0)--0-----0----(0)--0--|
--L--5--(5)---0----------(5)--5--|--L--5--(5)--5-----5----(5)--0--|
--------(0)---0--0--0----(0)-----|--------(0)-------------(0)-----|
---------x----0--0--0-----x------|---------x---------------x------|
-----------------5--5-5-------5--|-------------5--5---------------|


           NH    NH       NH                                          
  E  E     E     E  E     E   E    E     E   E    E.   E  E  E.   E   
--------<>12--------------------------|-------------------0--7s---4--|
--------------<>12-----<>12-----------|----------------0-------------|
-----0-----------------------(0)--13--|-----12s--(7)-----------------|
-----------------------------(0)------|----------(0)-----------------|
------------------------------x-------|-----------x------------------|
--0-----------------0-----------------|--0---------------------------|


  E  E  E  S E  S E  E  E     E  E  E  E  E  E   E   E   
--4--L---------------------|--------------0--2-------4--|
-------------0-------------|-----------0-----0-------0--|
--------0---------0--------|--------0-----------(0)-----|
-----0-----0----0----0-----|-----0--------------(0)-----|
------------------------0--|---------------------x------|
--0--L---------------------|--0-------------------------|


  E  E   E   E  E  E    E   E     E  E   E   E  E  E  E  E   
-----2-------0-----0h---2---0--|----------------0--0--2--4--|
-----0-------0-----0--------0--|-------------0--0--0-----0--|
--------(0)------------(0)-----|--------(0)--------------5--|
--------(0)------------(0)-----|--------(0)-----------------|
--2------x------2-------x------|--2--2---x------------------|
-------------------------------|-------------------------5--|


  E  E   E   S E  S E  E  E     E  E   E   E  E  S  S  E   E   
--L--2--------------------5--|--L--4-------0-----0h-2------0--|
--L--0--(0)-------0-------0--|--L--0--(0)--0-----0----(0)--0--|
--L--5--(5)----5----5-----5--|--L--5--(5)--5--5--5----(5)--0--|
--------(0)--0---------0-----|--------(0)-------------(0)-----|
---------x-------------------|---------x---------------x------|
--5--------------------------|--5-----------------------------|


             NH       NH                                            
  Q    E     E  E     E   E    E     E   E    E   E  E  E   E   E   
----------------------------------|------------------0--2-------4--|
----------<>12-----<>12-----------|---------------0--0--0-------0--|
-------0-----------------(0)--13--|-----12--(12)--0--0--1--(1)--3--|
-------------------------(0)------|----------(0)-----------(0)-----|
--------------------------x-------|-----------x-------------x------|
--0-------------0-----------------|--0-----------------------------|


  S  E  E  E  S E  E  E  E     E  E  E  E  E  E   E   E   
--3s-4--L-------------------|--------------0--2-------4--|
--0--0--L--0----0-----------|--------------0--0-------0--|
--2s-3--L----------0-----0--|-----------0--0--1--(0)--0--|
--------0-----0-------0-----|--0-----0-----------(0)-----|
----------------------------|---------------------x------|
--0-------------------------|-----0----------------------|


  E  E   E   E  E  E  S  S E     E  E  E  E  E  E    E   E   
-----2-------5-----4--0h-2-0--|--------------0--0h---2---4--|
-----0-------0-----0--0--0-0--|-----------0--0--0--------0--|
-----0--(0)--0-----0--0h-1-0--|--------0------------(0)--5--|
--------(0)-------------------|-----0---------------(0)-----|
--2------x------2-------------|--2-------------------x------|
------------------------------|--------------------------5--|


              ^  v  v                                              
  E  E   E    S  E  S E   E   E     E  E   E   E  E  S  S  E   E   
--L--2------------------------5--|--L--4-------0-----0h-2------0--|
--L--0--(0)--(0)---------(0)--0--|--L--0--(0)--0-----0----(0)--0--|
--L--5--(5)---0----------(5)--5--|--L--5--(5)--5-----5----(5)--0--|
--------(0)---0--0--0----(0)-----|--------(0)-------------(0)-----|
---------x----0--0--0-----x------|---------x---------------x------|
--5--------------5--5-5-------5--|-------------5--5---------------|


           NH    NH       NH                                              
  E  E     E     E  E     E   E    E     E   E   E   S  E  S  E.   S  E   
--------<>12--------------------------|--------------3s-4--3s-4s---2s-0--|
--------------<>12-----<>12-----------|--------------0--0--0--0----0--0--|
-----0-----------------------(0)--13--|-----12--(0)--2s-3--2s-3s---1s-0--|
-----------------------------(0)------|---------(0)----------------------|
------------------------------x-------|----------x-----------------------|
--0-----------------0-----------------|--0-------------------------------|


  W                  
--L----------------||
--L----------------||
--L----------------||
-------------------||
-------------------||
-------------------||




Duration Legend
---------------
W - whole
H - half
Q - quarter
E - 8th
S - 16th
T - 32nd
X - 64th
. - note dotted
|-n-|  - n-tuplets


Tablature Legend
----------------
L   - tied note
x   - dead note
g   - grace note
(n) - ghost note
NH  - natural harmonic
h   - hammer on
p   - pull off
s   - legato slide
~   - vibrato
^   - brush up
v   - brush down
PM  - palm mute



echo "Hello World!";

for - Charlene Mae -

Play until your fingers bleed!
Добавлено: 01.06.2012
Другие материалы по этой песне:

Страница создана 01.06.2012
http://primanota.ru/sandra-bae/just-the-way-you-are-chords.htm
Привет, Гость.
Предлагаем пройти революционный курс по гитаре.
Подарок от PrimaNota.Ru, забирай!