PrimaNota.ru - самый крупный в мире бесплатный архив песенных текстов, аккордов, табулатур и нот


San Cisco - Too Much Time Together - аккорды и текст, таба, бас-таба, видео

Регистрация Запомнить меня
Войти через:  Facebook Google Twitter Vk Yandex Mail.ru

San Cisco - Too Much Time Together - аккорды и текст, таба, бас-таба, видео

Печатать
Просмотров: 153
Уроки эстрадного вокала в Санкт-Петербурге
Too Much Time Together
San Cisco
tabbed by: Angela Hanton


[VERSE] (optional tab during verse)

E|-5-5--7-7--9-9----7-7------------------------------------------------------|
B|-7-7--7-7--7-7----7-7------------------------------------------------------|
G|---------------------------------------------------------------------------|
D|---------------------------------------------------------------------------|

E|-5-5--7-7--9-9----7-7------------------------------------------------------|
B|-7-7--7-7--7-7----7-7------------------------------------------------------|
G|---------------------------------------------------------------------------|
D|---------------------------------------------------------------------------|

E|-10-10--12-12--14-14--12-12------------------------------------------------|
B|-12-12--12-12--12-12--12-12------------------------------------------------|
G|---------------------------------------------------------------------------|
D|---------------------------------------------------------------------------|

E|-10-10--12-12--14-14--12-12------------------------------------------------|
B|-12-12--12-12--12-12--12-12------------------------------------------------|
G|---------------------------------------------------------------------------|
D|---------------------------------------------------------------------------|


x2

D
You don't know any of my friends
D
We're better off without them
G
I'm trying to keep up with the latest trends
G
You pulled me up so quick that I got the bends

D
This must be love
D
You're the only one that I'm thinking of
G
People say that we don't need to rush
G                    A
I don't care, you're my first crush

[CHORUS]
D
We spend too much time together
Bm
I wanna be with you forever
       G
But we need space
                   A
You should stay at your place

[VERSE] (optional tab during verse)

E|-5-5-7-7-9-9-7-7-----------------------------------------------------------|
B|--7-7-7-7-7-7-7-7----------------------------------------------------------|
G|---------------------------------------------------------------------------|
D|---------------------------------------------------------------------------|

E|-5-5-7-7-9-9-7-7-----------------------------------------------------------|
B|--7-7-7-7-7-7-7-7----------------------------------------------------------|
G|---------------------------------------------------------------------------|
D|---------------------------------------------------------------------------|

E|-10--10--12--12--14--14--12--12--------------------------------------------|
B|---12--12--12--12--12--12--12--12------------------------------------------|
G|---------------------------------------------------------------------------|
D|---------------------------------------------------------------------------|

E|-10--10--12--12--14--14--12--12--------------------------------------------|
B|---12--12--12--12--12--12--12--12------------------------------------------|
G|---------------------------------------------------------------------------|
D|---------------------------------------------------------------------------|

E|-5-5--7-7--9-9----7-7------------------------------------------------------|
B|-7-7--7-7--7-7----7-7------------------------------------------------------|
G|---------------------------------------------------------------------------|
D|---------------------------------------------------------------------------|

E|-5-5--7-7--9-9----7-7------------------------------------------------------|
B|-7-7--7-7--7-7----7-7------------------------------------------------------|
G|---------------------------------------------------------------------------|
D|---------------------------------------------------------------------------|

E|-10-10--12-12--14-14--12-12------------------------------------------------|
B|-12-12--12-12--12-12--12-12------------------------------------------------|
G|---------------------------------------------------------------------------|
D|---------------------------------------------------------------------------|

E|-10-10--12-12--14-14--12-12------------------------------------------------|
B|-12-12--12-12--12-12--12-12------------------------------------------------|
G|---------------------------------------------------------------------------|
D|---------------------------------------------------------------------------|


D
Hey look honey, yeah there's the moon
D
This is gonna be over soon
G
So many of the things you do
G
Annoy me like they never used to

D
Your touch used to be loving
D
Now it just feels smothering
G
Something changed, no one's to blame
G                                               Bm
I try to talk it out but I don't think you want to
A              D     Bm
So many things inside
G                                         A
So many dark secrets you don't want me to find

It doesn't help that

[CHORUS]

D
We spend too much time together
Bm
I wanna be with you forever
       G
But we need space
                   A
You should stay at your place

D
We spend too much time alone
Bm
When we're not together we talk on the phone
         G
Yeah, we need space
                   A
You should stay at your place

[BRIDGE]

D
I wrote you a letter
D
I don't know why but it makes me feel better
G
I haven't seen you for a year
    A
And I just wanna make one thing clear

[CHORUS]

D
We spend too much time together
Bm
I wanna be with you forever
       G
But we need space
                   A
You should stay at your place

D
We spend too much time alone
Bm
When we're not together we talk on the phone
         G
Yeah, we need space
                   A
You should stay at your place


Добавлено: 11.06.2016
Другие материалы по этой песне:
  • Аккорды и текст

Страница создана 31.07.2015
http://primanota.ru/san-cisco/too-much-time-together-chords.htm
Привет, Гость.
Предлагаем пройти революционный курс по гитаре.
Подарок от PrimaNota.Ru, забирай!