PrimaNota.ru - самый крупный в мире бесплатный архив песенных текстов, аккордов, табулатур и нот


San Cisco - Magic - таба, видео

Регистрация Запомнить меня
Войти через:  Facebook Google Twitter Vk Yandex Mail.ru

San Cisco - Magic - таба, видео

Печатать
Просмотров: 76
-------------------------------------------------------------------------------
                             Magic - San Cisco
-------------------------------------------------------------------------------
Tabbed by: Daniel K and Charlie B
E-mail: lol nah

Tuning: Standard

It's a really simple song, repeats itself a lot, but great song!
Could not be bothered to put in variation, very simple, figure out yourself!

Verse:
e|--17----14----12----9----9----7----9----9----9----7------------------------|
B|--14----14----9-----9----7----7----7----7----7----7------------------------|
G|--14----14----9-----9----7----7----7----7----7----7------------------------|
D|---------------------------------------------------------------------------|
A|---------------------------------------------------------------------------|
E|---------------------------------------------------------------------------|

Pre-Chorus/Maybe Chorus thing: "Is there method to madness..."
e|--17----12----9------------------------------------------------------------|
B|--14----9-----7------------------------------------------------------------|
G|--14----9-----7------------------------------------------------------------|
D|---------------------------------------------------------------------------|
A|---------------------------------------------------------------------------|
E|---------------------------------------------------------------------------|

Probably the Chorus: "Maybe we could be magic..."
e|--12----9----12----9----9----7----9----7-----------------------------------|
B|--9-----9----9-----9----7----7----7----7-----------------------------------|
G|--9-----9----9-----9----7----7----7----7-----------------------------------|
D|---------------------------------------------------------------------------|
A|---------------------------------------------------------------------------|
E|---------------------------------------------------------------------------|



Wow, much professional!
Добавлено: 19.09.2015
Другие материалы по этой песне:
  • Аккорды и текст

Страница создана 19.09.2015
http://primanota.ru/san-cisco/magic-chords.htm
Привет, Гость.
Предлагаем пройти революционный курс по гитаре.
Подарок от PrimaNota.Ru, забирай!