PrimaNota.ru - самый крупный в мире бесплатный архив песенных текстов, аккордов, табулатур и нот


San Cisco - Golden Revolver - аккорды и текст, видео

Регистрация Запомнить меня
Войти через:  Facebook Google Twitter Vk Yandex Mail.ru

San Cisco - Golden Revolver - аккорды и текст, видео

Печатать
Просмотров: 119
Golden Revolver
San Cisco
-----------------------------------------------------------------------------
                             Golden Revolver - San Cisco
-----------------------------------------------------------------------------
Tabbed by: Tammmmaraaa
contact: fangurlings.tumblr.com/ask

Capo 2

Firstly, this little bit is a very rough tab of the riff, it's my first tabbing so don't 
rely on it note for note and don't judge :) #NOH8

       G
e|-----------------------------------------------------------------------------|
B|-----------------------------------------------------------------------------|
G|-----------------------------------------------------------------------------|
D|--------0-----------0--------------0------------0----------------------------|
A|-----2----2--0----2----2-0------2----2--0-----2---2--0-----------------------|
E|--3------------3-------------3-------------3---------------------------------|


e|-----------------------------------------------------------------------------|
B|-----------------------------------------------------------------------------|
G|---------0----------0------------0-------------------------------------------|
D|------2-----2-0---2---2--0----2----2------0--- 0-----------------------------|
A|---3------------3----------3---------3------------3--------------------------|
E|-----------------------------------------------------------------------------|

CHORDS:   G       C      D  C
G                                       C
Take your blinkers off this time and maybe,
                                    D                         C
Maybe you will find what you're looking for; is heavenly the sky
G
Slow down and read the signs
                C
Cause you're going too fast and you're leaving us behind.

Em        D      C
So why would I try?
       Bm                C                G
When you're not even remotely, remotely kind

G        C        D       C

G
You can find love in the most extraordinary places
C
Hiding away so no one can trace them
G
You duck and weave through the maze of hatred,
C
And found yourself something but you kept it all

Em               C
So why would I try?
D                                          G
When you're not even remotely, remotely kind

G     C      D       G

G
You shot me with your golden revolver
C
Before I could take mine out of the holster
And you left me there lying on the ground,
C
And you were nowhere, nowhere to be found.

Em               C
So why would I try?
D                                          G
When you're not even remotely, remotely kind

G
Ooooooooh!
C
Ooooooooh!
G                           C
Oooooooo-oooooo-oooo-oooo-ooooh
Oooooooo-oooooo-oooo-oooo-ooooh
Oooooooo-oooooo-oooo-oooo-ooooh
Oooooooo-oooooo-oooo-oooo-ooooh
Добавлено: 03.08.2013
Другие материалы по этой песне:
  • Аккорды и текст

Страница создана 03.08.2013
http://primanota.ru/san-cisco/golden-revolver-chords.htm
Привет, Гость.
Предлагаем пройти революционный курс по гитаре.
Подарок от PrimaNota.Ru, забирай!