PrimaNota.ru - самый крупный в мире бесплатный архив песенных текстов, аккордов, табулатур и нот


Samuli Putro - Elämä On Juhla - таба, видео

Регистрация Запомнить меня
Войти через:  Facebook Google Twitter Vk Yandex Mail.ru

Samuli Putro - Elämä On Juhla - таба, видео

Печатать
Просмотров: 117
Уроки эстрадного вокала в Санкт-Петербурге
-------------------------------------------------------------------------------
                         Elämä on juhla - Samuli Putro
-------------------------------------------------------------------------------
Tabbed by: Bubi123
Tuning: Standard


   (Am) Muhkuraisen sängyn kautta
   (Am) Lipui lantioiden lautta 
   (Am) Reittiä epätasaista voi (Dm) nuoren parin onnea
   (G)  Lapsi syntyi vihdoinkin tuo (Am) täyttymysten heijastin
   (Em) Elämä on (Am) juhla

   (Am) Lapsuus nyt se ainoa kuin (Am) naarmu polvitaipeessa
   Vain (Am) puhallus ja pois se on
   
   Saapuu  nuoruus levoton

   Dm
e|----------------------------------------------------------------|
B|-----3-------3-------3-------3-------3-------3-------3-------3--|
G|-----2-------2-------2-------2-------2-------2-------2-------2--|
D|-0---------------0---------------0---------------0--------------|
A|---------0---------------0---------------0---------------0------|
E|----------------------------------------------------------------|

   Kuinka  joka   solulla      voi kannatella      kipua

   G                               Am
e|----------------------------------------------------------------|
B|-----0-------0-------0-------0-------1-------1-------1-------1--|
G|-----0-------0-------0-------0-------2-------2-------2-------2--|
D|-----------------0-----------------------2---------------2------|
A|---------2---------------2-------0---------------0--------------|
E|-3--------------------------------------------------------------|

                   Elämä       on  juhla

   Em                              Am
e|----------------------------------------------------------------|
B|-----0-------0-------0-------0-------1-------1-------1-------1--|
G|-----0-------0-------0-------0-------2-------2-------2-------2--|
D|-----------------------------------------2---------------2------|
A|---------2---------------2-------0---------------0--------------|
E|-0---------------0----------------------------------------------|

   Valkolakki      märkänä     kun juoksee kädet   ylhäällä

   Am
e|----------------------------------------------------------------|
B|-----1-------1-------1-------1-------1-------1-------1-------1--|
G|-----2-------2-------2-------2-------2-------2-------2-------2--|
D|---------2---------------2---------------2---------------2------|
A|-0---------------0---------------0---------------0--------------|
E|----------------------------------------------------------------|

Ja huutaa "Helou   vapaus!"   Niin tähän   suoran  leikkaus

   Am                              Dm
e|------------------------------------------------------------------------------------------------|
B|-----1-------1-------1-------1-------3-------3-------3-------3-------3-------3-------3-------3--|
G|-----2-------2-------2-------2-------2-------2-------2-------2-------2-------2-------2-------2--|
D|---------2---------------2-------0---------------0---------------0---------------0--------------|
A|-0---------------0-----------------------0---------------0---------------0---------------0------|
E|------------------------------------------------------------------------------------------------|

   Lasket  muuttolaatikon      ja  naapurusto      hahmoton

   G                               Am
e|----------------------------------------------------------------|
B|-----0-------0-------0-------0-------1-------1-------1-------1--|
G|-----0-------0-------0-------0-------2-------2-------2-------2--|
D|-----------------0-----------------------2---------------2------|
A|---------2---------------2-------0---------------0--------------|
E|-3--------------------------------------------------------------|

                   Elämä       on  juhla

   Em                              Am
e|------------------------------------------------------------------------------------------------|
B|-----0-------0-------0-------0-------1-------1-------1-------1-------1-------1-------1-------1--|
G|-----0-------0-------0-------0-------2-------2-------2-------2-------2-------2-------2-------2--|
D|-----------------------------------------2---------------2---------------2---------------2------|
A|---------2---------------2-------0---------------0---------------0---------------0--------------|
E|-0---------------0------------------------------------------------------------------------------|

Voi luoja  kuinka  kaunis  olet,   rakastunut      juuri   eilen

   Am
e|----------------------------------------------------------------|
B|-----1-------1-------1-------1-------1-------1-------1-------1--|
G|-----2-------2-------2-------2-------2-------2-------2-------2--|
D|---------2---------------2---------------2---------------2------|
A|-0---------------0---------------0---------------0--------------|
E|----------------------------------------------------------------|

   Ihmeellisen     hehkuva     te  kohtasitte      kadulla

   Am                              Dm
e|------------------------------------------------------------------------------------------------|
B|-----1-------1-------1-------1-------3-------3-------3-------3-------3-------3-------3-------3--|
G|-----2-------2-------2-------2-------2-------2-------2-------2-------2-------2-------2-------2--|
D|---------2---------------2-------0---------------0---------------0---------------0--------------|
A|-0---------------0-----------------------0---------------0---------------0---------------0------|
E|------------------------------------------------------------------------------------------------|

   Kaksi   eroon   joutunutta      planeettaa niin kauas   mutta

   G                               Am
e|----------------------------------------------------------------|
B|-----0-------0-------0-------0-------1-------1-------1-------1--|
G|-----0-------0-------0-------0-------2-------2-------2-------2--|
D|-----------------0-----------------------2---------------2------|
A|---------2---------------2-------0---------------0--------------|
E|-3--------------------------------------------------------------|

                   Elämä       on  juhla

   Em                              F
e|----------------------------------------------------------------|
B|-----0-------0-------0-------0-------1-------1-------1-------1--|
G|-----0-------0-------0-------0-------2-------2-------2-------2--|
D|-----------------------------------------3---------------3------|
A|---------2---------------2-------3---------------3--------------|
E|-0---------------0----------------------------------------------|

                   Elämä       on  juhla

   Em                              Am                              Dm
e|------------------------------------------------------------------------------------------------|
B|-----0-------0-------0-------0-------1-------1-------1-------1-------3-------3-------3-------3--|
G|-----0-------0-------0-------0-------2-------2-------2-------2-------2-------2-------2-------2--|
D|-----------------------------------------2---------------2-------0---------------0--------------|
A|---------2---------------2-------0---------------0-----------------------0---------------0------|
E|-0---------------0------------------------------------------------------------------------------|

   Am                              G                               Am
e|------------------------------------------------------------------------------------------------|
B|-----1-------1-------1-------1-------0-------0-------0-------0-------1-------1-------1-------1--|
G|-----2-------2-------2-------2-------0-------0-------0-------0-------2-------2-------2-------2--|
D|---------2---------------2-----------------------0-----------------------2---------------2------|
A|-0---------------0-----------------------2---------------2-------0---------------0--------------|
E|---------------------------------3--------------------------------------------------------------|

   Am                             
e|--------------------------------|
B|-----1-------1-------1-------1--|
G|-----2-------2-------2-------2--|
D|---------2---------------2------|
A|-0---------------0--------------|
E|--------------------------------|

   Opintojen       loppusilaus,    häät ja suuren  kakun   leikkaus

   Am
e|----------------------------------------------------------------|
B|-----1-------1-------1-------1-------1-------1-------1-------1--|
G|-----2-------2-------2-------2-------2-------2-------2-------2--|
D|---------2---------------2---------------2---------------2------|
A|-0---------------0---------------0---------------0--------------|
E|----------------------------------------------------------------|

   Riisi   kirkonportailla     ja  kuukausien      riitoja

   Am                              Dm
e|------------------------------------------------------------------------------------------------|
B|-----1-------1-------1-------1-------3-------3-------3-------3-------3-------3-------3-------3--|
G|-----2-------2-------2-------2-------2-------2-------2-------2-------2-------2-------2-------2--|
D|---------2---------------2-------0---------------0---------------0---------------0--------------|
A|-0---------------0-----------------------0---------------0---------------0---------------0------|
E|------------------------------------------------------------------------------------------------|

   Pettymysten     kihlarengas     vyöryy  ylämäkeenkin        kas

   G                               Am
e|----------------------------------------------------------------|
B|-----0-------0-------0-------0-------1-------1-------1-------1--|
G|-----0-------0-------0-------0-------2-------2-------2-------2--|
D|-----------------0-----------------------2---------------2------|
A|---------2---------------2-------0---------------0--------------|
E|-3--------------------------------------------------------------|

                   Elämä       on  juhla

   Em                              Am
e|----------------------------------------------------------------|
B|-----0-------0-------0-------0-------1-------1-------1-------1--|
G|-----0-------0-------0-------0-------2-------2-------2-------2--|
D|-----------------------------------------2---------------2------|
A|---------2---------------2-------0---------------0--------------|
E|-0---------------0----------------------------------------------|

   Muhkuraisen     sängyn  kautta, lipui   lantioiden      lautta

   Am
e|----------------------------------------------------------------|
B|-----1-------1-------1-------1-------1-------1-------1-------1--|
G|-----2-------2-------2-------2-------2-------2-------2-------2--|
D|---------2---------------2---------------2---------------2------|
A|-0---------------0---------------0---------------0--------------|
E|----------------------------------------------------------------|

   Reittiä epätasaista         voi itkeä      myös onnesta

   Am                              Dm
e|------------------------------------------------------------------------------------------------|
B|-----1-------1-------1-------1-------3-------3-------3-------3-------3-------3-------3-------3--|
G|-----2-------2-------2-------2-------2-------2-------2-------2-------2-------2-------2-------2--|
D|---------2---------------2-------0---------------0---------------0---------------0--------------|
A|-0---------------0-----------------------0---------------0---------------0---------------0------|
E|------------------------------------------------------------------------------------------------|

   Pappi   kastoi  esikoisen,      paremmin   nyt  laittaa voi en

   G                               Am
e|----------------------------------------------------------------|
B|-----0-------0-------0-------0-------1-------1-------1-------1--|
G|-----0-------0-------0-------0-------2-------2-------2-------2--|
D|-----------------0-----------------------2---------------2------|
A|---------2---------------2-------0---------------0--------------|
E|-3--------------------------------------------------------------|

                   Elämä       on  juhla

   Em                              F
e|----------------------------------------------------------------|
B|-----0-------0-------0-------0-------1-------1-------1-------1--|
G|-----0-------0-------0-------0-------2-------2-------2-------2--|
D|-----------------------------------------3---------------3------|
A|---------2---------------2-------3---------------3--------------|
E|-0---------------0----------------------------------------------|

                   Elämä       on  juhla

   Em                              Am                              Dm
e|------------------------------------------------------------------------------------------------|
B|-----0-------0-------0-------0-------1-------1-------1-------1-------3-------3-------3-------3--|
G|-----0-------0-------0-------0-------2-------2-------2-------2-------2-------2-------2-------2--|
D|-----------------------------------------2---------------2-------0---------------0--------------|
A|---------2---------------2-------0---------------0-----------------------0---------------0------|
E|-0---------------0------------------------------------------------------------------------------|

                                                   Elämä     on    juhla

   Am                              G                               Am
e|------------------------------------------------------------------------------------------------|
B|-----1-------1-------1-------1-------0-------0-------0-------0-------1-------1-------1-------1--|
G|-----2-------2-------2-------2-------0-------0-------0-------0-------2-------2-------2-------2--|
D|---------2---------------2-----------------------0-----------------------2---------------2------|
A|-0---------------0-----------------------2---------------2-------0---------------0--------------|
E|---------------------------------3--------------------------------------------------------------|

   Am                             
e|--------------------------------|
B|-----1-------1-------1-------1--|
G|-----2-------2-------2-------2--|
D|---------2---------------2------|
A|-0---------------0--------------|
E|--------------------------------|

   Sitten seuraa otos julma,  keski-ikään tulokulma

   Am                         Am
e|-0--------------------------0-----------------------------------|
B|-1--------------------------1-----------------------------------|
G|-2--------------------------2-----------------------------------|
D|-2--------------------------2-----------------------------------|
A|-0--------------------------0-----------------------------------|
E|----------------------------------------------------------------|

   Näyttää liian jyrkältä, ja sut voi ylipyyhkäistä 

   Am                         Dm
e|-0--------------------------1-----------------------------------|
B|-1--------------------------3-----------------------------------|
G|-2--------------------------2-----------------------------------|
D|-2--------------------------0-----------------------------------|
A|-0--------------------------------------------------------------|
E|----------------------------------------------------------------|


On tulokkaiden karsina ja sopimukset katkolla

   G                      Am
e|-3----------------------0---------------------------------------|
B|-0----------------------1---------------------------------------|
G|-0----------------------2---------------------------------------|
D|-0----------------------2---------------------------------------|
A|-2----------------------0---------------------------------------|
E|-3--------------------------------------------------------------|

                   Elämä       on  juhla

   Em                              Am
e|----------------------------------------------------------------|
B|-----0-------0-------0-------0-------1-------1-------1-------1--|
G|-----0-------0-------0-------0-------2-------2-------2-------2--|
D|-----------------------------------------2---------------2------|
A|---------2---------------2-------0---------------0--------------|
E|-0---------------0----------------------------------------------|

   Katse   siirtyy kauemmas,   näet lapsen lapses  otteissa

   Am
e|----------------------------------------------------------------|
B|-----1-------1-------1-------1-------1-------1-------1-------1--|
G|-----2-------2-------2-------2-------2-------2-------2-------2--|
D|---------2---------------2---------------2---------------2------|
A|-0---------------0---------------0---------------0--------------|
E|----------------------------------------------------------------|

   tuttua  päättäväisyyttä,    on  jouluaatto  yhdessä

   Am                              Dm
e|------------------------------------------------------------------------------------------------|
B|-----1-------1-------1-------1-------3-------3-------3-------3-------3-------3-------3-------3--|
G|-----2-------2-------2-------2-------2-------2-------2-------2-------2-------2-------2-------2--|
D|---------2---------------2-------0---------------0---------------0---------------0--------------|
A|-0---------------0-----------------------0---------------0---------------0---------------0------|
E|------------------------------------------------------------------------------------------------|

   Avaat   kaksi   pakettia    ja  katsot  muita   aikuisia

   G                               Am
e|----------------------------------------------------------------|
B|-----0-------0-------0-------0-------1-------1-------1-------1--|
G|-----0-------0-------0-------0-------2-------2-------2-------2--|
D|-----------------0-----------------------2---------------2------|
A|---------2---------------2-------0---------------0--------------|
E|-3--------------------------------------------------------------|

                   Elämä       on  juhla

   Em                              Am
e|----------------------------------------------------------------|
B|-----0-------0-------0-------0-------1-------1-------1-------1--|
G|-----0-------0-------0-------0-------2-------2-------2-------2--|
D|-----------------------------------------2---------------2------|
A|---------2---------------2-------0---------------0--------------|
E|-0---------------0----------------------------------------------|

Nyt vanhuus vierii sillalla    kuin kolikko    tai tupakka

   Am
e|----------------------------------------------------------------|
B|-----1-------1-------1-------1-------1-------1-------1-------1--|
G|-----2-------2-------2-------2-------2-------2-------2-------2--|
D|---------2---------------2---------------2---------------2------|
A|-0---------------0---------------0---------------0--------------|
E|----------------------------------------------------------------|

Ja sanotaan    et  kuolema     on  kauppamies  ja  taitava

   Am                              Dm
e|------------------------------------------------------------------------------------------------|
B|-----1-------1-------1-------1-------3-------3-------3-------3-------3-------3-------3-------3--|
G|-----2-------2-------2-------2-------2-------2-------2-------2-------2-------2-------2-------2--|
D|---------2---------------2-------0---------------0---------------0---------------0--------------|
A|-0---------------0-----------------------0---------------0---------------0---------------0------|
E|------------------------------------------------------------------------------------------------|

Kun sitten poistuu varmistin  pois henkäys         viimeisin

   G                               Am
e|----------------------------------------------------------------|
B|-----0-------0-------0-------0-------1-------1-------1-------1--|
G|-----0-------0-------0-------0-------2-------2-------2-------2--|
D|-----------------0-----------------------2---------------2------|
A|---------2---------------2-------0---------------0--------------|
E|-3--------------------------------------------------------------|

                   Elämä       on  juhla

   Em                              Am                              Dm
e|------------------------------------------------------------------------------------------------|
B|-----0-------0-------0-------0-------1-------1-------1-------1-------3-------3-------3-------3--|
G|-----0-------0-------0-------0-------2-------2-------2-------2-------2-------2-------2-------2--|
D|-----------------------------------------2---------------2-------0---------------0--------------|
A|---------2---------------2-------0---------------0-----------------------0---------------0------|
E|-0---------------0------------------------------------------------------------------------------|

                                                   Elämä     on    juhla

   Am                              G                               Am
e|------------------------------------------------------------------------------------------------|
B|-----1-------1-------1-------1-------0-------0-------0-------0-------1-------1-------1-------1--|
G|-----2-------2-------2-------2-------0-------0-------0-------0-------2-------2-------2-------2--|
D|---------2---------------2-----------------------0-----------------------2---------------2------|
A|-0---------------0-----------------------2---------------2-------0---------------0--------------|
E|---------------------------------3--------------------------------------------------------------|

   Am                Am               
e|-------------------0------|
B|-----1-------1-----1------|
G|-----2-------2-----2------|
D|---------2---------2------|
A|-0-----------------0------|
E|--------------------------|

Добавлено: 24.11.2015
Другие материалы по этой песне:
  • Аккорды и текст

Страница создана 24.11.2015
http://primanota.ru/samuli-putro/elama-on-juhla-chords.htm
Привет, Гость.
Предлагаем пройти революционный курс по гитаре.
Подарок от PrimaNota.Ru, забирай!