PrimaNota.ru - самый крупный в мире бесплатный архив песенных текстов, аккордов, табулатур и нот


Samuele Bersani - Cattiva - текст песни, таба, видео

Регистрация Запомнить меня
Войти через:  Facebook Google Twitter Vk Yandex Mail.ru

Samuele Bersani - Cattiva - текст песни, таба, видео

Печатать
Просмотров: 117
Уроки эстрадного вокала в Санкт-Петербурге
		   posto la mia versione dell'intro della canzone in oggetto.
Alcune posizioni (es. sul D e sul Sol) non sono usuali.
Nel dare il nome agli accordi a volte non ho seguito la tab: però mi sembra
suonino abbastanza bene anche senza fare l'arpeggino.
A prima strofa è identica all'intro.

Suggerimenti graditi.

Ciao
Bonzo

Samuele Bersani

Cattiva

Tuning : E A D G B E  Time Signature: 4/4

 Bm     |       |       |        D      |       |       |
|--------------------------------|--------------------------------|
|------------2h--3---------------|2h--3---0-----------------------|
|--------------------2-----------|----------------2-----------2---|
|--------4-------------------0---|------------------------0-------|
|2-------------------------------|--------------------------------|
|--------------------------------|--------------------------------|

 Sol     |       |       |        A7sus4 |       |       A7
|--------------------------------|--------------------------------|
|--------------------------------|------------3-----------2-------|
|------------2h--4---------------|--------------------0-----------|
|--------0-----------0-----------|--------2-----------------------|
|--------------------------------|0-------------------------------|
|3-------------------------------|--------------------------------|

 Bm     |       |       |        D      |       |       |
|--------------------------------|--------------------------------|
|------------2h--3---------------|2h--3---0-----------------------|
|--------------------2-----------|----------------2-----------2---|
|--------4-------------------0---|------------------------0-------|
|2-------------------------------|--------------------------------|
|--------------------------------|--------------------------------|

 Em     |       |       DOadd9   |       |       |       |
|--------------------------------|--------------------------------|
|------------0-------------------|--------3-----------------------|
|--------------------0-----------|----0---------------0-----------|
|--------2-----------------------|2---------------2---------------|
|------------------------3-------|------------------------3-------|
|0-------------------------------|--------------------------------|

 Bm     |       |       |        D      |       |       |
|--------------------------------|--------------------------------|
|------------2h--3---------------|2h--3---0-----------------------|
|--------------------2-----------|----------------2-----------2---|
|--------4-------------------0---|------------------------0-------|
|2-------------------------------|--------------------------------|
|--------------------------------|--------------------------------|

 Sol     |       |       |        Re/F#  |       |       |
|--------------------------------|--------------------------------|
|--------------------------------|------------3-------------------|
|------------2h--4---------------|--------------------2-----------|
|--------0-----------0-----------|--------0---------------0-------|
|--------------------------------|--------------------------------|
|3-------------------------------|2-------------------------------|

 Em7    |       |       |        Sol/B  |       |       |
|--------------------------------|--------------------------------|
|------------3-------------------|------------3-------------------|
|--------------------0-----------|--------------------2-----------|
|--------2---------------2-------|--------0---------------0-------|
|--------------------------------|2-------------------------------|
|0-------------------------------|--------------------------------|

 DOadd9  |       |       |        |       |       |       |
|----------------------------0---|--------------------------------|
|------------3-------------------|------------3-------------------|
|--------------------0-----------|----0---------------0-----------|
|--------2-----------------------|--------2-----------------------|
|3-------------------------------|------------------------3-------|
|--------------------------------|--------------------------------|
     
Добавлено: 10.06.2013
Другие материалы по этой песне:

Страница создана 09.03.2012
http://primanota.ru/samuele-bersani/cattiva-chords.htm
Привет, Гость.
Предлагаем пройти революционный курс по гитаре.
Подарок от PrimaNota.Ru, забирай!