PrimaNota.ru - самый крупный в мире бесплатный архив песенных текстов, аккордов, табулатур и нот


Samuel Wright - Kiss The Girl - аккорды и текст, видео

Регистрация Запомнить меня
Войти через:  Facebook Google Twitter Vk Yandex Mail.ru

Samuel Wright - Kiss The Girl - аккорды и текст, видео

Печатать
Просмотров: 210
Kiss The Girl
Samuel Wright
This is a more complete version of the song that I have arranged. It's a great song so have fun playing it!

CAPO ON FRET 5
CAPO ON FRET 5
CAPO ON FRET 5
THE CAPO IS VERY IMPORTANT THIS SONG WILL BE IN THE WRONG KEY IF YOU DON'T USE IT

Chords (in order of appearance):

   G  C  D  C7M    C7M  (variation 2)  Em7  Asus4*  G6
e--3--0--2----0----------3--------------0-----5-----X--
B--0--1--3----0----------0--------------0-----3-----X--
G--0--0--2----0----------0--------------0-----2-----0--
D--0--2--0----2----------2--------------0-----0-----0--
A--2--3--X----3----------3--------------2-----X-----2--
E--3--X--X----X----------X--------------0-----X-----3--

*I'm fairly certain this is an Asus4 chord variation, but I'm not entirely sure. For convenience's sake I'm
going to refer to it as Asus4.

(Verse)
G
There you see her

G
Sitting there across the way

C
She don't got a lot to say

                           G
But there's something about her

        D
And you don't know why

           C       C7M    C
But you're dying   to     try

C7M    C   C7M      C      C7M     G6
You    wan-na       kiss   the     girl


(Repeat Verse chords)
Yes, you want her
Look at her, you know you do
It's possible she wants you too
There is one way to ask her
It don't take a word
Not a single word
Go on and kiss the girl


(Chorus 1)
G
Sha la la la la la

C     C7M  (variation 2)
My oh my

C                 Em7
Look like the boy too shy

         C  D             Asus4   G
Ain't gonna kiss the girl

G
Sha la la la la la

C          C7M  (variation 2)
Ain't that sad?

C
Ain't it a shame?

Em7            C       C7M     G6
Too bad, he gonna miss the     girl

(Bridge)

(G)          (G)             (C)                       (D)         (C)
e------------|---------------|-------------------------|-----------|-----------------|
B----------0-|-------------0-|-1-1-0---1-1-1-0-----0---|-----------|-1-1-1-0---------|
G--0-0-0-2---|-0-0-0-0-0-2---|-------2---------2-2---0-|-0---------|---------2-2---0-|
D------------|---------------|-------------------------|---4-2-4-0-|-----------------|
A------------|---------------|-------------------------|-----------|-----------------|
E------------|---------------|-------------------------|-----------|-----------------|

(Repeat Verse Chords)
Now's your moment
Floating in a blue lagoon
Boy you better do it soon
No time will be better
She don't say a word
And she won't say a word
Until you kiss the girl

(Chorus 2)
G
Sha la la la la la

C        C7M  (variation 2)
Don't be scared

C                Em7
You got the mood prepared

      C   D             Asus4  G
Go on and kiss the girl

G
Sha la la la la la

C          C7M  (variation 2)
Don't stop now

C                 Em7
Don't try to hide it how

         C       C7M     G6    Asus4  G
You want to kiss the     girl


(Repeat Chorus 1 Chords)
Sha la la la la la
Float along
And listen to the song
The song say kiss the girl
Sha la la la la
The music play
Do what the music say
You got to kiss the girl


              C        G
You've got to kiss the girl

          C        G
You wanna kiss the girl

             C        G
You've gotta kiss the girl

          C        G
Go on and kiss the girl
Добавлено: 26.07.2015
Другие материалы по этой песне:
  • Аккорды и текст

Страница создана 26.07.2015
http://primanota.ru/samuel-wright/kiss-girl-chords.htm
Привет, Гость.
Предлагаем пройти революционный курс по гитаре.
Подарок от PrimaNota.Ru, забирай!